ISO-10303-21;
HEADER;
FILE_DESCRIPTION((''),'2;1');
FILE_NAME('596345','2021-05-24T14:13:00',('mkho'),(''),
'CREO PARAMETRIC BY PTC INC, 2018500','CREO PARAMETRIC BY PTC INC, 2018500','');
FILE_SCHEMA(('CONFIG_CONTROL_DESIGN'));
ENDSEC;
DATA;
#1=CARTESIAN_POINT('',(0.E0,0.E0,0.E0));
#2=DIRECTION('',(0.E0,0.E0,1.E0));
#3=DIRECTION('',(0.E0,1.E0,0.E0));
#4=AXIS2_PLACEMENT_3D('',#1,#2,#3);
#6=CARTESIAN_POINT('',(0.E0,0.E0,0.E0));
#7=DIRECTION('',(0.E0,0.E0,1.E0));
#8=DIRECTION('',(0.E0,-1.E0,0.E0));
#9=AXIS2_PLACEMENT_3D('',#6,#7,#8);
#11=CARTESIAN_POINT('',(0.E0,0.E0,3.637978807092E-12));
#12=DIRECTION('',(0.E0,0.E0,1.E0));
#13=DIRECTION('',(0.E0,-1.E0,0.E0));
#14=AXIS2_PLACEMENT_3D('',#11,#12,#13);
#16=CARTESIAN_POINT('',(0.E0,0.E0,3.637978807092E-12));
#17=DIRECTION('',(0.E0,0.E0,1.E0));
#18=DIRECTION('',(0.E0,1.E0,0.E0));
#19=AXIS2_PLACEMENT_3D('',#16,#17,#18);
#21=DIRECTION('',(0.E0,0.E0,1.E0));
#22=VECTOR('',#21,1.E1);
#23=CARTESIAN_POINT('',(4.959819536547E-14,4.05E2,0.E0));
#24=LINE('',#23,#22);
#25=DIRECTION('',(0.E0,0.E0,1.E0));
#26=VECTOR('',#25,1.E1);
#27=CARTESIAN_POINT('',(-4.959819536547E-14,-4.05E2,0.E0));
#28=LINE('',#27,#26);
#29=CARTESIAN_POINT('',(0.E0,0.E0,1.E1));
#30=DIRECTION('',(0.E0,0.E0,1.E0));
#31=DIRECTION('',(0.E0,1.E0,0.E0));
#32=AXIS2_PLACEMENT_3D('',#29,#30,#31);
#34=CARTESIAN_POINT('',(0.E0,0.E0,1.E1));
#35=DIRECTION('',(0.E0,0.E0,1.E0));
#36=DIRECTION('',(0.E0,-1.E0,0.E0));
#37=AXIS2_PLACEMENT_3D('',#34,#35,#36);
#39=CARTESIAN_POINT('',(0.E0,0.E0,1.E1));
#40=DIRECTION('',(0.E0,0.E0,-1.E0));
#41=DIRECTION('',(0.E0,1.E0,0.E0));
#42=AXIS2_PLACEMENT_3D('',#39,#40,#41);
#44=CARTESIAN_POINT('',(0.E0,0.E0,1.E1));
#45=DIRECTION('',(0.E0,0.E0,-1.E0));
#46=DIRECTION('',(0.E0,-1.E0,0.E0));
#47=AXIS2_PLACEMENT_3D('',#44,#45,#46);
#49=DIRECTION('',(0.E0,3.700988256844E-14,1.E0));
#50=VECTOR('',#49,3.071796769725E0);
#51=CARTESIAN_POINT('',(7.404784652548E-14,3.65E2,6.928203230275E0));
#52=LINE('',#51,#50);
#53=CARTESIAN_POINT('',(0.E0,0.E0,6.928203230275E0));
#54=DIRECTION('',(0.E0,0.E0,1.E0));
#55=DIRECTION('',(0.E0,-1.E0,0.E0));
#56=AXIS2_PLACEMENT_3D('',#53,#54,#55);
#58=CARTESIAN_POINT('',(0.E0,0.E0,6.928203230275E0));
#59=DIRECTION('',(0.E0,0.E0,1.E0));
#60=DIRECTION('',(0.E0,1.E0,0.E0));
#61=AXIS2_PLACEMENT_3D('',#58,#59,#60);
#63=DIRECTION('',(0.E0,-3.700988256844E-14,1.E0));
#64=VECTOR('',#63,3.071796769725E0);
#65=CARTESIAN_POINT('',(-3.794174601966E-14,-3.65E2,6.928203230275E0));
#66=LINE('',#65,#64);
#67=DIRECTION('',(0.E0,-5.E-1,8.660254037844E-1));
#68=VECTOR('',#67,8.E0);
#69=CARTESIAN_POINT('',(8.474928407058E-14,3.69E2,-7.579122514774E-14));
#70=LINE('',#69,#68);
#71=DIRECTION('',(0.E0,5.E-1,8.660254037844E-1));
#72=VECTOR('',#71,8.E0);
#73=CARTESIAN_POINT('',(-1.679903558789E-14,-3.69E2,-7.579122514774E-14));
#74=LINE('',#73,#72);
#75=CARTESIAN_POINT('',(4.959819536547E-14,4.05E2,0.E0));
#76=CARTESIAN_POINT('',(-9.919639073094E-14,-4.05E2,0.E0));
#77=VERTEX_POINT('',#75);
#78=VERTEX_POINT('',#76);
#79=CARTESIAN_POINT('',(4.959819536547E-14,4.05E2,1.E1));
#80=CARTESIAN_POINT('',(-9.919639073093E-14,-4.05E2,1.E1));
#81=VERTEX_POINT('',#79);
#82=VERTEX_POINT('',#80);
#83=CARTESIAN_POINT('',(4.469960816888E-14,3.65E2,1.E1));
#84=CARTESIAN_POINT('',(0.E0,-3.65E2,1.E1));
#85=VERTEX_POINT('',#83);
#86=VERTEX_POINT('',#84);
#87=CARTESIAN_POINT('',(7.404784652548E-14,3.65E2,6.928203230275E0));
#88=VERTEX_POINT('',#87);
#89=CARTESIAN_POINT('',(-3.794174601966E-14,-3.65E2,6.928203230275E0));
#90=VERTEX_POINT('',#89);
#91=CARTESIAN_POINT('',(-4.518946688854E-14,-3.69E2,3.637978807092E-12));
#92=CARTESIAN_POINT('',(9.037893377707E-14,3.69E2,3.637978807092E-12));
#93=VERTEX_POINT('',#91);
#94=VERTEX_POINT('',#92);
#95=CARTESIAN_POINT('',(0.E0,0.E0,0.E0));
#96=DIRECTION('',(0.E0,0.E0,1.E0));
#97=DIRECTION('',(0.E0,1.E0,0.E0));
#98=AXIS2_PLACEMENT_3D('',#95,#96,#97);
#99=PLANE('',#98);
#101=ORIENTED_EDGE('',*,*,#100,.T.);
#103=ORIENTED_EDGE('',*,*,#102,.T.);
#104=EDGE_LOOP('',(#101,#103));
#105=FACE_OUTER_BOUND('',#104,.F.);
#107=ORIENTED_EDGE('',*,*,#106,.F.);
#109=ORIENTED_EDGE('',*,*,#108,.F.);
#110=EDGE_LOOP('',(#107,#109));
#111=FACE_BOUND('',#110,.F.);
#112=ADVANCED_FACE('',(#105,#111),#99,.F.);
#113=CARTESIAN_POINT('',(0.E0,0.E0,0.E0));
#114=DIRECTION('',(0.E0,0.E0,1.E0));
#115=DIRECTION('',(0.E0,1.E0,0.E0));
#116=AXIS2_PLACEMENT_3D('',#113,#114,#115);
#117=CYLINDRICAL_SURFACE('',#116,4.05E2);
#118=ORIENTED_EDGE('',*,*,#100,.F.);
#120=ORIENTED_EDGE('',*,*,#119,.T.);
#122=ORIENTED_EDGE('',*,*,#121,.T.);
#124=ORIENTED_EDGE('',*,*,#123,.F.);
#125=EDGE_LOOP('',(#118,#120,#122,#124));
#126=FACE_OUTER_BOUND('',#125,.F.);
#127=ADVANCED_FACE('',(#126),#117,.T.);
#128=CARTESIAN_POINT('',(0.E0,0.E0,0.E0));
#129=DIRECTION('',(0.E0,0.E0,1.E0));
#130=DIRECTION('',(0.E0,1.E0,0.E0));
#131=AXIS2_PLACEMENT_3D('',#128,#129,#130);
#132=CYLINDRICAL_SURFACE('',#131,4.05E2);
#133=ORIENTED_EDGE('',*,*,#102,.F.);
#134=ORIENTED_EDGE('',*,*,#123,.T.);
#136=ORIENTED_EDGE('',*,*,#135,.T.);
#137=ORIENTED_EDGE('',*,*,#119,.F.);
#138=EDGE_LOOP('',(#133,#134,#136,#137));
#139=FACE_OUTER_BOUND('',#138,.F.);
#140=ADVANCED_FACE('',(#139),#132,.T.);
#141=CARTESIAN_POINT('',(0.E0,0.E0,1.E1));
#142=DIRECTION('',(0.E0,0.E0,1.E0));
#143=DIRECTION('',(0.E0,1.E0,0.E0));
#144=AXIS2_PLACEMENT_3D('',#141,#142,#143);
#145=PLANE('',#144);
#146=ORIENTED_EDGE('',*,*,#121,.F.);
#147=ORIENTED_EDGE('',*,*,#135,.F.);
#148=EDGE_LOOP('',(#146,#147));
#149=FACE_OUTER_BOUND('',#148,.F.);
#151=ORIENTED_EDGE('',*,*,#150,.F.);
#153=ORIENTED_EDGE('',*,*,#152,.F.);
#154=EDGE_LOOP('',(#151,#153));
#155=FACE_BOUND('',#154,.F.);
#156=ADVANCED_FACE('',(#149,#155),#145,.T.);
#157=CARTESIAN_POINT('',(0.E0,0.E0,0.E0));
#158=DIRECTION('',(0.E0,0.E0,1.E0));
#159=DIRECTION('',(0.E0,1.E0,0.E0));
#160=AXIS2_PLACEMENT_3D('',#157,#158,#159);
#161=CYLINDRICAL_SURFACE('',#160,3.65E2);
#163=ORIENTED_EDGE('',*,*,#162,.T.);
#164=ORIENTED_EDGE('',*,*,#150,.T.);
#166=ORIENTED_EDGE('',*,*,#165,.F.);
#168=ORIENTED_EDGE('',*,*,#167,.T.);
#169=EDGE_LOOP('',(#163,#164,#166,#168));
#170=FACE_OUTER_BOUND('',#169,.F.);
#171=ADVANCED_FACE('',(#170),#161,.F.);
#172=CARTESIAN_POINT('',(0.E0,0.E0,0.E0));
#173=DIRECTION('',(0.E0,0.E0,1.E0));
#174=DIRECTION('',(0.E0,1.E0,0.E0));
#175=AXIS2_PLACEMENT_3D('',#172,#173,#174);
#176=CYLINDRICAL_SURFACE('',#175,3.65E2);
#177=ORIENTED_EDGE('',*,*,#162,.F.);
#179=ORIENTED_EDGE('',*,*,#178,.T.);
#180=ORIENTED_EDGE('',*,*,#165,.T.);
#181=ORIENTED_EDGE('',*,*,#152,.T.);
#182=EDGE_LOOP('',(#177,#179,#180,#181));
#183=FACE_OUTER_BOUND('',#182,.F.);
#184=ADVANCED_FACE('',(#183),#176,.F.);
#185=CARTESIAN_POINT('',(0.E0,0.E0,3.464101615138E0));
#186=DIRECTION('',(0.E0,0.E0,-1.E0));
#187=DIRECTION('',(0.E0,-1.E0,0.E0));
#188=AXIS2_PLACEMENT_3D('',#185,#186,#187);
#189=CONICAL_SURFACE('',#188,3.67E2,3.E1);
#190=ORIENTED_EDGE('',*,*,#108,.T.);
#192=ORIENTED_EDGE('',*,*,#191,.T.);
#193=ORIENTED_EDGE('',*,*,#178,.F.);
#195=ORIENTED_EDGE('',*,*,#194,.F.);
#196=EDGE_LOOP('',(#190,#192,#193,#195));
#197=FACE_OUTER_BOUND('',#196,.F.);
#198=ADVANCED_FACE('',(#197),#189,.F.);
#199=CARTESIAN_POINT('',(0.E0,0.E0,3.464101615138E0));
#200=DIRECTION('',(0.E0,0.E0,-1.E0));
#201=DIRECTION('',(0.E0,-1.E0,0.E0));
#202=AXIS2_PLACEMENT_3D('',#199,#200,#201);
#203=CONICAL_SURFACE('',#202,3.67E2,3.E1);
#204=ORIENTED_EDGE('',*,*,#106,.T.);
#205=ORIENTED_EDGE('',*,*,#194,.T.);
#206=ORIENTED_EDGE('',*,*,#167,.F.);
#207=ORIENTED_EDGE('',*,*,#191,.F.);
#208=EDGE_LOOP('',(#204,#205,#206,#207));
#209=FACE_OUTER_BOUND('',#208,.F.);
#210=ADVANCED_FACE('',(#209),#203,.F.);
#211=CLOSED_SHELL('',(#112,#127,#140,#156,#171,#184,#198,#210));
#212=MANIFOLD_SOLID_BREP('',#211);
#214=DIMENSIONAL_EXPONENTS(0.E0,0.E0,0.E0,0.E0,0.E0,0.E0,0.E0);
#216=PLANE_ANGLE_MEASURE_WITH_UNIT(PLANE_ANGLE_MEASURE(1.745329251994E-2),#215);
#217=(CONVERSION_BASED_UNIT('DEGREE',#216)NAMED_UNIT(*)PLANE_ANGLE_UNIT());
#219=UNCERTAINTY_MEASURE_WITH_UNIT(LENGTH_MEASURE(1.E-3),#213,'closure',
'Maximum model space distance between geometric entities at asserted connectivities');
#220=(GEOMETRIC_REPRESENTATION_CONTEXT(3)GLOBAL_UNCERTAINTY_ASSIGNED_CONTEXT((
#219))GLOBAL_UNIT_ASSIGNED_CONTEXT((#213,#217,#218))REPRESENTATION_CONTEXT
('ID1','3'));
#222=APPLICATION_CONTEXT(
'CONFIGURATION CONTROLLED 3D DESIGNS OF MECHANICAL PARTS AND ASSEMBLIES');
#223=APPLICATION_PROTOCOL_DEFINITION('international standard',
'config_control_design',1994,#222);
#224=DESIGN_CONTEXT('',#222,'design');
#225=MECHANICAL_CONTEXT('',#222,'mechanical');
#226=PRODUCT('596345','596345','NOT SPECIFIED',(#225));
#227=PRODUCT_DEFINITION_FORMATION_WITH_SPECIFIED_SOURCE('1','LAST_VERSION',#226,
.MADE.);
#231=PRODUCT_CATEGORY('part','');
#232=PRODUCT_RELATED_PRODUCT_CATEGORY('detail','',(#226));
#233=PRODUCT_CATEGORY_RELATIONSHIP('','',#231,#232);
#234=SECURITY_CLASSIFICATION_LEVEL('unclassified');
#235=SECURITY_CLASSIFICATION('','',#234);
#236=CC_DESIGN_SECURITY_CLASSIFICATION(#235,(#227));
#237=APPROVAL_STATUS('approved');
#238=APPROVAL(#237,'');
#239=CC_DESIGN_APPROVAL(#238,(#235,#227,#228));
#240=CALENDAR_DATE(121,24,5);
#241=COORDINATED_UNIVERSAL_TIME_OFFSET(2,0,.AHEAD.);
#242=LOCAL_TIME(14,13,0.E0,#241);
#243=DATE_AND_TIME(#240,#242);
#244=APPROVAL_DATE_TIME(#243,#238);
#245=DATE_TIME_ROLE('creation_date');
#246=CC_DESIGN_DATE_AND_TIME_ASSIGNMENT(#243,#245,(#228));
#247=DATE_TIME_ROLE('classification_date');
#248=CC_DESIGN_DATE_AND_TIME_ASSIGNMENT(#243,#247,(#235));
#249=PERSON('UNSPECIFIED','UNSPECIFIED',$,$,$,$);
#250=ORGANIZATION('UNSPECIFIED','UNSPECIFIED','UNSPECIFIED');
#251=PERSON_AND_ORGANIZATION(#249,#250);
#252=APPROVAL_ROLE('approver');
#253=APPROVAL_PERSON_ORGANIZATION(#251,#238,#252);
#254=PERSON_AND_ORGANIZATION_ROLE('creator');
#255=CC_DESIGN_PERSON_AND_ORGANIZATION_ASSIGNMENT(#251,#254,(#227,#228));
#256=PERSON_AND_ORGANIZATION_ROLE('design_supplier');
#257=CC_DESIGN_PERSON_AND_ORGANIZATION_ASSIGNMENT(#251,#256,(#227));
#258=PERSON_AND_ORGANIZATION_ROLE('classification_officer');
#259=CC_DESIGN_PERSON_AND_ORGANIZATION_ASSIGNMENT(#251,#258,(#235));
#260=PERSON_AND_ORGANIZATION_ROLE('design_owner');
#261=CC_DESIGN_PERSON_AND_ORGANIZATION_ASSIGNMENT(#251,#260,(#226));
#5=CIRCLE('',#4,4.05E2);
#10=CIRCLE('',#9,4.05E2);
#15=CIRCLE('',#14,3.69E2);
#20=CIRCLE('',#19,3.69E2);
#33=CIRCLE('',#32,4.05E2);
#38=CIRCLE('',#37,4.05E2);
#43=CIRCLE('',#42,3.65E2);
#48=CIRCLE('',#47,3.65E2);
#57=CIRCLE('',#56,3.65E2);
#62=CIRCLE('',#61,3.65E2);
#100=EDGE_CURVE('',#77,#78,#5,.T.);
#102=EDGE_CURVE('',#78,#77,#10,.T.);
#106=EDGE_CURVE('',#93,#94,#15,.T.);
#108=EDGE_CURVE('',#94,#93,#20,.T.);
#119=EDGE_CURVE('',#77,#81,#24,.T.);
#121=EDGE_CURVE('',#81,#82,#33,.T.);
#123=EDGE_CURVE('',#78,#82,#28,.T.);
#135=EDGE_CURVE('',#82,#81,#38,.T.);
#150=EDGE_CURVE('',#85,#86,#43,.T.);
#152=EDGE_CURVE('',#86,#85,#48,.T.);
#162=EDGE_CURVE('',#88,#85,#52,.T.);
#165=EDGE_CURVE('',#90,#86,#66,.T.);
#167=EDGE_CURVE('',#90,#88,#57,.T.);
#178=EDGE_CURVE('',#88,#90,#62,.T.);
#191=EDGE_CURVE('',#93,#90,#74,.T.);
#194=EDGE_CURVE('',#94,#88,#70,.T.);
#213=(LENGTH_UNIT()NAMED_UNIT(*)SI_UNIT(.MILLI.,.METRE.));
#215=(NAMED_UNIT(*)PLANE_ANGLE_UNIT()SI_UNIT($,.RADIAN.));
#218=(NAMED_UNIT(*)SI_UNIT($,.STERADIAN.)SOLID_ANGLE_UNIT());
#221=ADVANCED_BREP_SHAPE_REPRESENTATION('',(#212),#220);
#228=PRODUCT_DEFINITION('design','',#227,#224);
#229=PRODUCT_DEFINITION_SHAPE('','SHAPE FOR 596345.',#228);
#230=SHAPE_DEFINITION_REPRESENTATION(#229,#221);
ENDSEC;
END-ISO-10303-21;
