ISO-10303-21;
HEADER;
FILE_DESCRIPTION((''),'2;1');
FILE_NAME('596342','2021-05-24T14:16:39',('mkho'),(''),
'CREO PARAMETRIC BY PTC INC, 2018500','CREO PARAMETRIC BY PTC INC, 2018500','');
FILE_SCHEMA(('CONFIG_CONTROL_DESIGN'));
ENDSEC;
DATA;
#1=CARTESIAN_POINT('',(0.E0,0.E0,0.E0));
#2=DIRECTION('',(0.E0,0.E0,1.E0));
#3=DIRECTION('',(0.E0,1.E0,0.E0));
#4=AXIS2_PLACEMENT_3D('',#1,#2,#3);
#6=CARTESIAN_POINT('',(0.E0,0.E0,0.E0));
#7=DIRECTION('',(0.E0,0.E0,1.E0));
#8=DIRECTION('',(0.E0,-1.E0,0.E0));
#9=AXIS2_PLACEMENT_3D('',#6,#7,#8);
#11=CARTESIAN_POINT('',(0.E0,0.E0,0.E0));
#12=DIRECTION('',(0.E0,0.E0,1.E0));
#13=DIRECTION('',(0.E0,1.E0,0.E0));
#14=AXIS2_PLACEMENT_3D('',#11,#12,#13);
#16=CARTESIAN_POINT('',(0.E0,0.E0,0.E0));
#17=DIRECTION('',(0.E0,0.E0,1.E0));
#18=DIRECTION('',(0.E0,-1.E0,0.E0));
#19=AXIS2_PLACEMENT_3D('',#16,#17,#18);
#21=DIRECTION('',(0.E0,0.E0,1.E0));
#22=VECTOR('',#21,4.E1);
#23=CARTESIAN_POINT('',(5.143516556419E-14,4.2E2,0.E0));
#24=LINE('',#23,#22);
#25=DIRECTION('',(0.E0,0.E0,1.E0));
#26=VECTOR('',#25,4.E1);
#27=CARTESIAN_POINT('',(-5.143516556419E-14,-4.2E2,0.E0));
#28=LINE('',#27,#26);
#29=CARTESIAN_POINT('',(0.E0,0.E0,4.E1));
#30=DIRECTION('',(0.E0,0.E0,-1.E0));
#31=DIRECTION('',(0.E0,1.E0,0.E0));
#32=AXIS2_PLACEMENT_3D('',#29,#30,#31);
#34=CARTESIAN_POINT('',(0.E0,0.E0,4.E1));
#35=DIRECTION('',(0.E0,0.E0,-1.E0));
#36=DIRECTION('',(0.E0,-1.E0,0.E0));
#37=AXIS2_PLACEMENT_3D('',#34,#35,#36);
#39=CARTESIAN_POINT('',(0.E0,0.E0,4.E1));
#40=DIRECTION('',(0.E0,0.E0,1.E0));
#41=DIRECTION('',(0.E0,1.E0,0.E0));
#42=AXIS2_PLACEMENT_3D('',#39,#40,#41);
#44=CARTESIAN_POINT('',(0.E0,0.E0,4.E1));
#45=DIRECTION('',(0.E0,0.E0,1.E0));
#46=DIRECTION('',(0.E0,-1.E0,0.E0));
#47=AXIS2_PLACEMENT_3D('',#44,#45,#46);
#49=CARTESIAN_POINT('',(0.E0,0.E0,7.000000000001E0));
#50=DIRECTION('',(0.E0,0.E0,-1.E0));
#51=DIRECTION('',(0.E0,1.E0,0.E0));
#52=AXIS2_PLACEMENT_3D('',#49,#50,#51);
#54=DIRECTION('',(0.E0,0.E0,1.E0));
#55=VECTOR('',#54,3.3E1);
#56=CARTESIAN_POINT('',(3.773005576016E-14,3.55E2,7.E0));
#57=LINE('',#56,#55);
#58=DIRECTION('',(0.E0,8.660254037845E-1,-5.E-1));
#59=VECTOR('',#58,4.E0);
#60=CARTESIAN_POINT('',(3.773005576016E-14,3.55E2,7.E0));
#61=LINE('',#60,#59);
#62=DIRECTION('',(0.E0,-8.660254037845E-1,-5.E-1));
#63=VECTOR('',#62,4.E0);
#64=CARTESIAN_POINT('',(-3.066436769117E-14,-3.55E2,7.E0));
#65=LINE('',#64,#63);
#66=CARTESIAN_POINT('',(0.E0,0.E0,7.000000000001E0));
#67=DIRECTION('',(0.E0,0.E0,-1.E0));
#68=DIRECTION('',(0.E0,-1.E0,0.E0));
#69=AXIS2_PLACEMENT_3D('',#66,#67,#68);
#71=DIRECTION('',(0.E0,0.E0,1.E0));
#72=VECTOR('',#71,3.3E1);
#73=CARTESIAN_POINT('',(-3.066436769117E-14,-3.55E2,7.E0));
#74=LINE('',#73,#72);
#75=CARTESIAN_POINT('',(0.E0,0.E0,5.E0));
#76=DIRECTION('',(0.E0,0.E0,1.E0));
#77=DIRECTION('',(0.E0,1.E0,0.E0));
#78=AXIS2_PLACEMENT_3D('',#75,#76,#77);
#80=CARTESIAN_POINT('',(0.E0,0.E0,5.E0));
#81=DIRECTION('',(0.E0,0.E0,1.E0));
#82=DIRECTION('',(0.E0,-1.E0,0.E0));
#83=AXIS2_PLACEMENT_3D('',#80,#81,#82);
#85=CARTESIAN_POINT('',(0.E0,0.E0,5.E0));
#86=DIRECTION('',(0.E0,0.E0,-1.E0));
#87=DIRECTION('',(0.E0,-1.E0,0.E0));
#88=AXIS2_PLACEMENT_3D('',#85,#86,#87);
#90=CARTESIAN_POINT('',(0.E0,0.E0,5.E0));
#91=DIRECTION('',(0.E0,0.E0,-1.E0));
#92=DIRECTION('',(0.E0,1.E0,0.E0));
#93=AXIS2_PLACEMENT_3D('',#90,#91,#92);
#95=DIRECTION('',(0.E0,0.E0,1.E0));
#96=VECTOR('',#95,5.E0);
#97=CARTESIAN_POINT('',(4.476088344958E-14,3.655E2,0.E0));
#98=LINE('',#97,#96);
#99=DIRECTION('',(0.E0,0.E0,1.E0));
#100=VECTOR('',#99,5.E0);
#101=CARTESIAN_POINT('',(-4.476084050884E-14,-3.655E2,0.E0));
#102=LINE('',#101,#100);
#103=CARTESIAN_POINT('',(5.143516556419E-14,4.2E2,0.E0));
#104=CARTESIAN_POINT('',(-1.028703311284E-13,-4.2E2,0.E0));
#105=VERTEX_POINT('',#103);
#106=VERTEX_POINT('',#104);
#107=CARTESIAN_POINT('',(4.347496136973E-14,3.55E2,4.E1));
#108=CARTESIAN_POINT('',(0.E0,-3.55E2,4.E1));
#109=VERTEX_POINT('',#107);
#110=VERTEX_POINT('',#108);
#111=CARTESIAN_POINT('',(5.143516556419E-14,4.2E2,4.E1));
#112=CARTESIAN_POINT('',(-1.028703311284E-13,-4.2E2,4.E1));
#113=VERTEX_POINT('',#111);
#114=VERTEX_POINT('',#112);
#115=CARTESIAN_POINT('',(4.476084050884E-14,3.655E2,5.E0));
#116=CARTESIAN_POINT('',(-8.952168101767E-14,-3.655E2,5.E0));
#117=VERTEX_POINT('',#115);
#118=VERTEX_POINT('',#116);
#119=CARTESIAN_POINT('',(4.476096933107E-14,3.655E2,0.E0));
#120=CARTESIAN_POINT('',(-8.952180983991E-14,-3.655E2,0.E0));
#121=VERTEX_POINT('',#119);
#122=VERTEX_POINT('',#120);
#123=CARTESIAN_POINT('',(-4.347496136973E-14,-3.55E2,7.000000000001E0));
#124=CARTESIAN_POINT('',(0.E0,3.55E2,7.000000000001E0));
#125=VERTEX_POINT('',#123);
#126=VERTEX_POINT('',#124);
#127=CARTESIAN_POINT('',(-4.389919146522E-14,-3.584641016151E2,5.E0));
#128=CARTESIAN_POINT('',(0.E0,3.584641016151E2,5.E0));
#129=VERTEX_POINT('',#127);
#130=VERTEX_POINT('',#128);
#131=CARTESIAN_POINT('',(0.E0,0.E0,0.E0));
#132=DIRECTION('',(0.E0,0.E0,1.E0));
#133=DIRECTION('',(0.E0,1.E0,0.E0));
#134=AXIS2_PLACEMENT_3D('',#131,#132,#133);
#135=PLANE('',#134);
#137=ORIENTED_EDGE('',*,*,#136,.T.);
#139=ORIENTED_EDGE('',*,*,#138,.T.);
#140=EDGE_LOOP('',(#137,#139));
#141=FACE_OUTER_BOUND('',#140,.F.);
#143=ORIENTED_EDGE('',*,*,#142,.F.);
#145=ORIENTED_EDGE('',*,*,#144,.F.);
#146=EDGE_LOOP('',(#143,#145));
#147=FACE_BOUND('',#146,.F.);
#148=ADVANCED_FACE('',(#141,#147),#135,.F.);
#149=CARTESIAN_POINT('',(0.E0,0.E0,0.E0));
#150=DIRECTION('',(0.E0,0.E0,1.E0));
#151=DIRECTION('',(0.E0,1.E0,0.E0));
#152=AXIS2_PLACEMENT_3D('',#149,#150,#151);
#153=CYLINDRICAL_SURFACE('',#152,4.2E2);
#154=ORIENTED_EDGE('',*,*,#136,.F.);
#156=ORIENTED_EDGE('',*,*,#155,.T.);
#158=ORIENTED_EDGE('',*,*,#157,.T.);
#160=ORIENTED_EDGE('',*,*,#159,.F.);
#161=EDGE_LOOP('',(#154,#156,#158,#160));
#162=FACE_OUTER_BOUND('',#161,.F.);
#163=ADVANCED_FACE('',(#162),#153,.T.);
#164=CARTESIAN_POINT('',(0.E0,0.E0,0.E0));
#165=DIRECTION('',(0.E0,0.E0,1.E0));
#166=DIRECTION('',(0.E0,1.E0,0.E0));
#167=AXIS2_PLACEMENT_3D('',#164,#165,#166);
#168=CYLINDRICAL_SURFACE('',#167,4.2E2);
#169=ORIENTED_EDGE('',*,*,#138,.F.);
#170=ORIENTED_EDGE('',*,*,#159,.T.);
#172=ORIENTED_EDGE('',*,*,#171,.T.);
#173=ORIENTED_EDGE('',*,*,#155,.F.);
#174=EDGE_LOOP('',(#169,#170,#172,#173));
#175=FACE_OUTER_BOUND('',#174,.F.);
#176=ADVANCED_FACE('',(#175),#168,.T.);
#177=CARTESIAN_POINT('',(0.E0,0.E0,4.E1));
#178=DIRECTION('',(0.E0,0.E0,1.E0));
#179=DIRECTION('',(0.E0,1.E0,0.E0));
#180=AXIS2_PLACEMENT_3D('',#177,#178,#179);
#181=PLANE('',#180);
#182=ORIENTED_EDGE('',*,*,#157,.F.);
#183=ORIENTED_EDGE('',*,*,#171,.F.);
#184=EDGE_LOOP('',(#182,#183));
#185=FACE_OUTER_BOUND('',#184,.F.);
#187=ORIENTED_EDGE('',*,*,#186,.F.);
#189=ORIENTED_EDGE('',*,*,#188,.F.);
#190=EDGE_LOOP('',(#187,#189));
#191=FACE_BOUND('',#190,.F.);
#192=ADVANCED_FACE('',(#185,#191),#181,.T.);
#193=CARTESIAN_POINT('',(0.E0,0.E0,0.E0));
#194=DIRECTION('',(0.E0,0.E0,1.E0));
#195=DIRECTION('',(0.E0,1.E0,0.E0));
#196=AXIS2_PLACEMENT_3D('',#193,#194,#195);
#197=CYLINDRICAL_SURFACE('',#196,3.55E2);
#199=ORIENTED_EDGE('',*,*,#198,.F.);
#201=ORIENTED_EDGE('',*,*,#200,.T.);
#202=ORIENTED_EDGE('',*,*,#186,.T.);
#204=ORIENTED_EDGE('',*,*,#203,.F.);
#205=EDGE_LOOP('',(#199,#201,#202,#204));
#206=FACE_OUTER_BOUND('',#205,.F.);
#207=ADVANCED_FACE('',(#206),#197,.F.);
#208=CARTESIAN_POINT('',(0.E0,0.E0,6.000000000001E0));
#209=DIRECTION('',(0.E0,0.E0,-1.E0));
#210=DIRECTION('',(0.E0,-1.E0,0.E0));
#211=AXIS2_PLACEMENT_3D('',#208,#209,#210);
#212=CONICAL_SURFACE('',#211,3.567320508076E2,6.E1);
#213=ORIENTED_EDGE('',*,*,#198,.T.);
#215=ORIENTED_EDGE('',*,*,#214,.T.);
#217=ORIENTED_EDGE('',*,*,#216,.F.);
#219=ORIENTED_EDGE('',*,*,#218,.F.);
#220=EDGE_LOOP('',(#213,#215,#217,#219));
#221=FACE_OUTER_BOUND('',#220,.F.);
#222=ADVANCED_FACE('',(#221),#212,.F.);
#223=CARTESIAN_POINT('',(0.E0,0.E0,6.000000000001E0));
#224=DIRECTION('',(0.E0,0.E0,-1.E0));
#225=DIRECTION('',(0.E0,-1.E0,0.E0));
#226=AXIS2_PLACEMENT_3D('',#223,#224,#225);
#227=CONICAL_SURFACE('',#226,3.567320508076E2,6.E1);
#229=ORIENTED_EDGE('',*,*,#228,.T.);
#230=ORIENTED_EDGE('',*,*,#218,.T.);
#232=ORIENTED_EDGE('',*,*,#231,.F.);
#233=ORIENTED_EDGE('',*,*,#214,.F.);
#234=EDGE_LOOP('',(#229,#230,#232,#233));
#235=FACE_OUTER_BOUND('',#234,.F.);
#236=ADVANCED_FACE('',(#235),#227,.F.);
#237=CARTESIAN_POINT('',(0.E0,0.E0,0.E0));
#238=DIRECTION('',(0.E0,0.E0,1.E0));
#239=DIRECTION('',(0.E0,1.E0,0.E0));
#240=AXIS2_PLACEMENT_3D('',#237,#238,#239);
#241=CYLINDRICAL_SURFACE('',#240,3.55E2);
#242=ORIENTED_EDGE('',*,*,#228,.F.);
#243=ORIENTED_EDGE('',*,*,#203,.T.);
#244=ORIENTED_EDGE('',*,*,#188,.T.);
#245=ORIENTED_EDGE('',*,*,#200,.F.);
#246=EDGE_LOOP('',(#242,#243,#244,#245));
#247=FACE_OUTER_BOUND('',#246,.F.);
#248=ADVANCED_FACE('',(#247),#241,.F.);
#249=CARTESIAN_POINT('',(0.E0,0.E0,5.E0));
#250=DIRECTION('',(0.E0,0.E0,1.E0));
#251=DIRECTION('',(0.E0,1.E0,0.E0));
#252=AXIS2_PLACEMENT_3D('',#249,#250,#251);
#253=PLANE('',#252);
#255=ORIENTED_EDGE('',*,*,#254,.T.);
#257=ORIENTED_EDGE('',*,*,#256,.T.);
#258=EDGE_LOOP('',(#255,#257));
#259=FACE_OUTER_BOUND('',#258,.F.);
#260=ORIENTED_EDGE('',*,*,#231,.T.);
#261=ORIENTED_EDGE('',*,*,#216,.T.);
#262=EDGE_LOOP('',(#260,#261));
#263=FACE_BOUND('',#262,.F.);
#264=ADVANCED_FACE('',(#259,#263),#253,.F.);
#265=CARTESIAN_POINT('',(0.E0,0.E0,0.E0));
#266=DIRECTION('',(0.E0,0.E0,1.E0));
#267=DIRECTION('',(0.E0,1.E0,0.E0));
#268=AXIS2_PLACEMENT_3D('',#265,#266,#267);
#269=CYLINDRICAL_SURFACE('',#268,3.655E2);
#270=ORIENTED_EDGE('',*,*,#142,.T.);
#272=ORIENTED_EDGE('',*,*,#271,.T.);
#273=ORIENTED_EDGE('',*,*,#254,.F.);
#275=ORIENTED_EDGE('',*,*,#274,.F.);
#276=EDGE_LOOP('',(#270,#272,#273,#275));
#277=FACE_OUTER_BOUND('',#276,.F.);
#278=ADVANCED_FACE('',(#277),#269,.F.);
#279=CARTESIAN_POINT('',(0.E0,0.E0,0.E0));
#280=DIRECTION('',(0.E0,0.E0,1.E0));
#281=DIRECTION('',(0.E0,1.E0,0.E0));
#282=AXIS2_PLACEMENT_3D('',#279,#280,#281);
#283=CYLINDRICAL_SURFACE('',#282,3.655E2);
#284=ORIENTED_EDGE('',*,*,#144,.T.);
#285=ORIENTED_EDGE('',*,*,#274,.T.);
#286=ORIENTED_EDGE('',*,*,#256,.F.);
#287=ORIENTED_EDGE('',*,*,#271,.F.);
#288=EDGE_LOOP('',(#284,#285,#286,#287));
#289=FACE_OUTER_BOUND('',#288,.F.);
#290=ADVANCED_FACE('',(#289),#283,.F.);
#291=CLOSED_SHELL('',(#148,#163,#176,#192,#207,#222,#236,#248,#264,#278,#290));
#292=MANIFOLD_SOLID_BREP('',#291);
#294=DIMENSIONAL_EXPONENTS(0.E0,0.E0,0.E0,0.E0,0.E0,0.E0,0.E0);
#296=PLANE_ANGLE_MEASURE_WITH_UNIT(PLANE_ANGLE_MEASURE(1.745329251994E-2),#295);
#297=(CONVERSION_BASED_UNIT('DEGREE',#296)NAMED_UNIT(*)PLANE_ANGLE_UNIT());
#299=UNCERTAINTY_MEASURE_WITH_UNIT(LENGTH_MEASURE(1.E-3),#293,'closure',
'Maximum model space distance between geometric entities at asserted connectivities');
#300=(GEOMETRIC_REPRESENTATION_CONTEXT(3)GLOBAL_UNCERTAINTY_ASSIGNED_CONTEXT((
#299))GLOBAL_UNIT_ASSIGNED_CONTEXT((#293,#297,#298))REPRESENTATION_CONTEXT
('ID1','3'));
#302=APPLICATION_CONTEXT(
'CONFIGURATION CONTROLLED 3D DESIGNS OF MECHANICAL PARTS AND ASSEMBLIES');
#303=APPLICATION_PROTOCOL_DEFINITION('international standard',
'config_control_design',1994,#302);
#304=DESIGN_CONTEXT('',#302,'design');
#305=MECHANICAL_CONTEXT('',#302,'mechanical');
#306=PRODUCT('596342','596342','NOT SPECIFIED',(#305));
#307=PRODUCT_DEFINITION_FORMATION_WITH_SPECIFIED_SOURCE('1','LAST_VERSION',#306,
.MADE.);
#311=PRODUCT_CATEGORY('part','');
#312=PRODUCT_RELATED_PRODUCT_CATEGORY('detail','',(#306));
#313=PRODUCT_CATEGORY_RELATIONSHIP('','',#311,#312);
#314=SECURITY_CLASSIFICATION_LEVEL('unclassified');
#315=SECURITY_CLASSIFICATION('','',#314);
#316=CC_DESIGN_SECURITY_CLASSIFICATION(#315,(#307));
#317=APPROVAL_STATUS('approved');
#318=APPROVAL(#317,'');
#319=CC_DESIGN_APPROVAL(#318,(#315,#307,#308));
#320=CALENDAR_DATE(121,24,5);
#321=COORDINATED_UNIVERSAL_TIME_OFFSET(2,0,.AHEAD.);
#322=LOCAL_TIME(14,16,3.9E1,#321);
#323=DATE_AND_TIME(#320,#322);
#324=APPROVAL_DATE_TIME(#323,#318);
#325=DATE_TIME_ROLE('creation_date');
#326=CC_DESIGN_DATE_AND_TIME_ASSIGNMENT(#323,#325,(#308));
#327=DATE_TIME_ROLE('classification_date');
#328=CC_DESIGN_DATE_AND_TIME_ASSIGNMENT(#323,#327,(#315));
#329=PERSON('UNSPECIFIED','UNSPECIFIED',$,$,$,$);
#330=ORGANIZATION('UNSPECIFIED','UNSPECIFIED','UNSPECIFIED');
#331=PERSON_AND_ORGANIZATION(#329,#330);
#332=APPROVAL_ROLE('approver');
#333=APPROVAL_PERSON_ORGANIZATION(#331,#318,#332);
#334=PERSON_AND_ORGANIZATION_ROLE('creator');
#335=CC_DESIGN_PERSON_AND_ORGANIZATION_ASSIGNMENT(#331,#334,(#307,#308));
#336=PERSON_AND_ORGANIZATION_ROLE('design_supplier');
#337=CC_DESIGN_PERSON_AND_ORGANIZATION_ASSIGNMENT(#331,#336,(#307));
#338=PERSON_AND_ORGANIZATION_ROLE('classification_officer');
#339=CC_DESIGN_PERSON_AND_ORGANIZATION_ASSIGNMENT(#331,#338,(#315));
#340=PERSON_AND_ORGANIZATION_ROLE('design_owner');
#341=CC_DESIGN_PERSON_AND_ORGANIZATION_ASSIGNMENT(#331,#340,(#306));
#5=CIRCLE('',#4,4.2E2);
#10=CIRCLE('',#9,4.2E2);
#15=CIRCLE('',#14,3.655E2);
#20=CIRCLE('',#19,3.655E2);
#33=CIRCLE('',#32,3.55E2);
#38=CIRCLE('',#37,3.55E2);
#43=CIRCLE('',#42,4.2E2);
#48=CIRCLE('',#47,4.2E2);
#53=CIRCLE('',#52,3.55E2);
#70=CIRCLE('',#69,3.55E2);
#79=CIRCLE('',#78,3.655E2);
#84=CIRCLE('',#83,3.655E2);
#89=CIRCLE('',#88,3.584641016151E2);
#94=CIRCLE('',#93,3.584641016151E2);
#136=EDGE_CURVE('',#105,#106,#5,.T.);
#138=EDGE_CURVE('',#106,#105,#10,.T.);
#142=EDGE_CURVE('',#121,#122,#15,.T.);
#144=EDGE_CURVE('',#122,#121,#20,.T.);
#155=EDGE_CURVE('',#105,#113,#24,.T.);
#157=EDGE_CURVE('',#113,#114,#43,.T.);
#159=EDGE_CURVE('',#106,#114,#28,.T.);
#171=EDGE_CURVE('',#114,#113,#48,.T.);
#186=EDGE_CURVE('',#109,#110,#33,.T.);
#188=EDGE_CURVE('',#110,#109,#38,.T.);
#198=EDGE_CURVE('',#126,#125,#53,.T.);
#200=EDGE_CURVE('',#126,#109,#57,.T.);
#203=EDGE_CURVE('',#125,#110,#74,.T.);
#214=EDGE_CURVE('',#125,#129,#65,.T.);
#216=EDGE_CURVE('',#130,#129,#94,.T.);
#218=EDGE_CURVE('',#126,#130,#61,.T.);
#228=EDGE_CURVE('',#125,#126,#70,.T.);
#231=EDGE_CURVE('',#129,#130,#89,.T.);
#254=EDGE_CURVE('',#117,#118,#79,.T.);
#256=EDGE_CURVE('',#118,#117,#84,.T.);
#271=EDGE_CURVE('',#122,#118,#102,.T.);
#274=EDGE_CURVE('',#121,#117,#98,.T.);
#293=(LENGTH_UNIT()NAMED_UNIT(*)SI_UNIT(.MILLI.,.METRE.));
#295=(NAMED_UNIT(*)PLANE_ANGLE_UNIT()SI_UNIT($,.RADIAN.));
#298=(NAMED_UNIT(*)SI_UNIT($,.STERADIAN.)SOLID_ANGLE_UNIT());
#301=ADVANCED_BREP_SHAPE_REPRESENTATION('',(#292),#300);
#308=PRODUCT_DEFINITION('design','',#307,#304);
#309=PRODUCT_DEFINITION_SHAPE('','SHAPE FOR 596342.',#308);
#310=SHAPE_DEFINITION_REPRESENTATION(#309,#301);
ENDSEC;
END-ISO-10303-21;
