ISO-10303-21;
HEADER;
FILE_DESCRIPTION((''),'2;1');
FILE_NAME('596341','2021-05-24T14:17:00',('mkho'),(''),
'CREO PARAMETRIC BY PTC INC, 2018500','CREO PARAMETRIC BY PTC INC, 2018500','');
FILE_SCHEMA(('CONFIG_CONTROL_DESIGN'));
ENDSEC;
DATA;
#1=DIRECTION('',(0.E0,0.E0,1.E0));
#2=VECTOR('',#1,4.120717967697E2);
#3=CARTESIAN_POINT('',(3.649566372823E2,-1.152642369005E1,0.E0));
#4=LINE('',#3,#2);
#5=DIRECTION('',(0.E0,0.E0,-1.E0));
#6=VECTOR('',#5,4.120717967697E2);
#7=CARTESIAN_POINT('',(-3.649980013689E2,-5.898502353330E0,4.120717967697E2));
#8=LINE('',#7,#6);
#9=CARTESIAN_POINT('',(1.977226949280E-3,-5.773502353330E0,4.120717967697E2));
#10=DIRECTION('',(0.E0,0.E0,1.E0));
#11=DIRECTION('',(-9.999999413586E-1,-3.424657534247E-4,0.E0));
#12=AXIS2_PLACEMENT_3D('',#9,#10,#11);
#14=CARTESIAN_POINT('',(1.977226949300E-3,-5.773502353330E0,4.120717967697E2));
#15=DIRECTION('',(0.E0,0.E0,1.E0));
#16=DIRECTION('',(9.998757809735E-1,-1.576142831978E-2,0.E0));
#17=AXIS2_PLACEMENT_3D('',#14,#15,#16);
#19=DIRECTION('',(0.E0,0.E0,-1.E0));
#20=VECTOR('',#19,4.120717967697E2);
#21=CARTESIAN_POINT('',(-3.648046621162E2,6.105718628239E0,4.120717967697E2));
#22=LINE('',#21,#20);
#23=CARTESIAN_POINT('',(-3.608749824969E2,3.651038423828E0,4.19E2));
#24=CARTESIAN_POINT('',(-3.613125589370E2,3.920951750610E0,4.182301486869E2));
#25=CARTESIAN_POINT('',(-3.621871039354E2,4.462654061378E0,4.166904840193E2));
#26=CARTESIAN_POINT('',(-3.634970108128E2,5.280892328003E0,4.143810744975E2));
#27=CARTESIAN_POINT('',(-3.643689892606E2,5.830143386678E0,4.128415389853E2));
#28=CARTESIAN_POINT('',(-3.648046621162E2,6.105718628239E0,4.120717967697E2));
#30=DIRECTION('',(4.999378904867E-1,-7.880714159874E-3,-8.660254037845E-1));
#31=VECTOR('',#30,8.E0);
#32=CARTESIAN_POINT('',(3.609571341584E2,-1.146337797677E1,4.19E2));
#33=LINE('',#32,#31);
#34=CARTESIAN_POINT('',(-3.609913105942E2,-3.571644847578E0,4.19E2));
#35=CARTESIAN_POINT('',(-3.614373522379E2,-3.827326675269E0,4.182301486869E2));
#36=CARTESIAN_POINT('',(-3.623288883615E2,-4.340584590946E0,4.166904840193E2));
#37=CARTESIAN_POINT('',(-3.636644659882E2,-5.116214845120E0,4.143810744975E2));
#38=CARTESIAN_POINT('',(-3.645536799888E2,-5.637100245386E0,4.128415389853E2));
#39=CARTESIAN_POINT('',(-3.649980013689E2,-5.898502353330E0,4.120717967697E2));
#41=DIRECTION('',(0.E0,0.E0,1.E0));
#42=VECTOR('',#41,4.166905989232E2);
#43=CARTESIAN_POINT('',(3.549578794725E2,-1.136880940685E1,2.309401076758E0));
#44=LINE('',#43,#42);
#45=DIRECTION('',(0.E0,0.E0,-1.E0));
#46=VECTOR('',#45,4.166905989232E2);
#47=CARTESIAN_POINT('',(-3.549539250186E2,-1.781952998090E-1,4.19E2));
#48=LINE('',#47,#46);
#49=CARTESIAN_POINT('',(1.977226949280E-3,-5.773502353330E0,2.309401076759E0));
#50=DIRECTION('',(0.E0,0.E0,1.E0));
#51=DIRECTION('',(-9.998757809735E-1,1.576142831978E-2,0.E0));
#52=AXIS2_PLACEMENT_3D('',#49,#50,#51);
#54=CARTESIAN_POINT('',(1.977226949300E-3,-5.773502353330E0,2.309401076758E0));
#55=DIRECTION('',(0.E0,0.E0,1.E0));
#56=DIRECTION('',(9.998757809735E-1,-1.576142831978E-2,0.E0));
#57=AXIS2_PLACEMENT_3D('',#54,#55,#56);
#59=DIRECTION('',(0.E0,0.E0,-1.E0));
#60=VECTOR('',#59,4.166905989232E2);
#61=CARTESIAN_POINT('',(-3.549500093563E2,6.492385445767E-2,4.19E2));
#62=LINE('',#61,#60);
#63=CARTESIAN_POINT('',(-3.589039841301E2,2.442875516486E0,0.E0));
#64=CARTESIAN_POINT('',(-3.584653584086E2,2.175713133120E0,2.567045537541E-1));
#65=CARTESIAN_POINT('',(-3.575876177208E2,1.643367121872E0,7.700408294918E-1));
#66=CARTESIAN_POINT('',(-3.562696139612E2,8.507088005882E-1,1.539842756360E0));
#67=CARTESIAN_POINT('',(-3.553900287971E2,3.262006565856E-1,2.052909202673E0));
#68=CARTESIAN_POINT('',(-3.549500093563E2,6.492385445793E-2,2.309401076758E0));
#70=DIRECTION('',(-8.659178269518E-1,1.364979732481E-2,5.E-1));
#71=VECTOR('',#70,4.618802153517E0);
#72=CARTESIAN_POINT('',(3.589573825964E2,-1.143185512013E1,1.421085471520E-14));
#73=LINE('',#72,#71);
#74=CARTESIAN_POINT('',(-3.589824274172E2,-2.427581670212E0,0.E0));
#75=CARTESIAN_POINT('',(-3.585354256264E2,-2.174683149672E0,2.567045537540E-1));
#76=CARTESIAN_POINT('',(-3.576409967767E2,-1.670879593164E0,7.700408294917E-1));
#77=CARTESIAN_POINT('',(-3.562981502317E2,-9.210767649809E-1,1.539842756360E0));
#78=CARTESIAN_POINT('',(-3.554021302693E2,-4.251664091023E-1,2.052909202672E0));
#79=CARTESIAN_POINT('',(-3.549539250186E2,-1.781952998089E-1,2.309401076758E0));
#81=DIRECTION('',(9.998757809735E-1,-1.576142831975E-2,0.E0));
#82=VECTOR('',#81,6.E0);
#83=CARTESIAN_POINT('',(3.589573825964E2,-1.143185512013E1,1.421085471520E-14));
#84=LINE('',#83,#82);
#85=CARTESIAN_POINT('',(1.977226949293E-3,-5.773502353330E0,
1.335820343229E-12));
#86=DIRECTION('',(0.E0,0.E0,1.E0));
#87=DIRECTION('',(-9.999565666699E-1,9.320127344066E-3,0.E0));
#88=AXIS2_PLACEMENT_3D('',#85,#86,#87);
#90=CARTESIAN_POINT('',(-1.568351746839E2,-3.597257732190E2,0.E0));
#91=DIRECTION('',(0.E0,0.E0,-1.E0));
#92=DIRECTION('',(-5.070728576192E-1,8.619031947185E-1,0.E0));
#93=AXIS2_PLACEMENT_3D('',#90,#91,#92);
#95=CARTESIAN_POINT('',(1.977226949280E-3,-5.773502353330E0,0.E0));
#96=DIRECTION('',(0.E0,0.E0,1.E0));
#97=DIRECTION('',(-9.999999413586E-1,-3.424657534247E-4,0.E0));
#98=AXIS2_PLACEMENT_3D('',#95,#96,#97);
#100=CARTESIAN_POINT('',(1.977226949300E-3,-5.773502353330E0,0.E0));
#101=DIRECTION('',(0.E0,0.E0,1.E0));
#102=DIRECTION('',(9.998757809735E-1,-1.576142831978E-2,0.E0));
#103=AXIS2_PLACEMENT_3D('',#100,#101,#102);
#105=CARTESIAN_POINT('',(-1.453553175840E2,3.530458938835E2,
5.684341886081E-14));
#106=DIRECTION('',(0.E0,0.E0,-1.E0));
#107=DIRECTION('',(-5.201924438341E-1,-8.540490743382E-1,0.E0));
#108=AXIS2_PLACEMENT_3D('',#105,#106,#107);
#110=CARTESIAN_POINT('',(1.977226949236E-3,-5.773502353330E0,
1.364242052659E-12));
#111=DIRECTION('',(0.E0,0.E0,1.E0));
#112=DIRECTION('',(9.998757809735E-1,-1.576142831978E-2,0.E0));
#113=AXIS2_PLACEMENT_3D('',#110,#111,#112);
#115=CARTESIAN_POINT('',(1.977226949300E-3,-5.773502353330E0,4.19E2));
#116=DIRECTION('',(0.E0,0.E0,1.E0));
#117=DIRECTION('',(9.998757809735E-1,-1.576142831978E-2,0.E0));
#118=AXIS2_PLACEMENT_3D('',#115,#116,#117);
#120=CARTESIAN_POINT('',(-1.453553175840E2,3.530458938835E2,4.19E2));
#121=DIRECTION('',(0.E0,0.E0,1.E0));
#122=DIRECTION('',(-5.249937128968E-1,-8.511061046772E-1,0.E0));
#123=AXIS2_PLACEMENT_3D('',#120,#121,#122);
#125=CARTESIAN_POINT('',(1.977226949236E-3,-5.773502353330E0,4.19E2));
#126=DIRECTION('',(0.E0,0.E0,1.E0));
#127=DIRECTION('',(9.998757809735E-1,-1.576142831978E-2,0.E0));
#128=AXIS2_PLACEMENT_3D('',#125,#126,#127);
#130=DIRECTION('',(9.998757809735E-1,-1.576142831977E-2,0.E0));
#131=VECTOR('',#130,6.E0);
#132=CARTESIAN_POINT('',(3.549578794725E2,-1.136880940685E1,4.19E2));
#133=LINE('',#132,#131);
#134=CARTESIAN_POINT('',(1.977226949293E-3,-5.773502353330E0,4.19E2));
#135=DIRECTION('',(0.E0,0.E0,1.E0));
#136=DIRECTION('',(-9.999813990046E-1,6.099315115990E-3,0.E0));
#137=AXIS2_PLACEMENT_3D('',#134,#135,#136);
#139=CARTESIAN_POINT('',(-1.568351746839E2,-3.597257732190E2,4.19E2));
#140=DIRECTION('',(0.E0,0.E0,1.E0));
#141=DIRECTION('',(-4.826060564222E-1,8.758375387620E-1,0.E0));
#142=AXIS2_PLACEMENT_3D('',#139,#140,#141);
#144=CARTESIAN_POINT('',(1.977226949280E-3,-5.773502353330E0,4.19E2));
#145=DIRECTION('',(0.E0,0.E0,1.E0));
#146=DIRECTION('',(-9.998757809735E-1,1.576142831978E-2,0.E0));
#147=AXIS2_PLACEMENT_3D('',#144,#145,#146);
#149=CARTESIAN_POINT('',(-3.649980013689E2,-5.898502353330E0,0.E0));
#150=CARTESIAN_POINT('',(3.649566372823E2,-1.152642369005E1,0.E0));
#151=VERTEX_POINT('',#149);
#152=VERTEX_POINT('',#150);
#153=CARTESIAN_POINT('',(-3.649980013689E2,-5.898502353330E0,4.120717967697E2));
#154=VERTEX_POINT('',#153);
#155=CARTESIAN_POINT('',(3.649566372823E2,-1.152642369005E1,4.120717967697E2));
#156=VERTEX_POINT('',#155);
#157=CARTESIAN_POINT('',(-3.589824302075E2,-2.427576636810E0,
1.335820343229E-12));
#158=CARTESIAN_POINT('',(3.589573825964E2,-1.143185512013E1,
1.335820343229E-12));
#159=VERTEX_POINT('',#157);
#160=VERTEX_POINT('',#158);
#161=CARTESIAN_POINT('',(-3.609913078137E2,-3.571649596458E0,4.19E2));
#162=CARTESIAN_POINT('',(3.609571341584E2,-1.146337797677E1,4.19E2));
#163=VERTEX_POINT('',#161);
#164=VERTEX_POINT('',#162);
#165=CARTESIAN_POINT('',(-3.549539250186E2,-1.781952998091E-1,4.19E2));
#166=VERTEX_POINT('',#165);
#167=CARTESIAN_POINT('',(3.549578794725E2,-1.136880940685E1,4.19E2));
#168=VERTEX_POINT('',#167);
#169=CARTESIAN_POINT('',(-3.549539250186E2,-1.781952998089E-1,
2.309401076758E0));
#170=VERTEX_POINT('',#169);
#171=CARTESIAN_POINT('',(3.549578794725E2,-1.136880940685E1,2.309401076759E0));
#172=VERTEX_POINT('',#171);
#173=CARTESIAN_POINT('',(-3.608749795649E2,3.651043080703E0,4.19E2));
#174=VERTEX_POINT('',#173);
#175=VERTEX_POINT('',#28);
#176=CARTESIAN_POINT('',(-3.589039870811E2,2.442870575552E0,
1.364242052659E-12));
#177=VERTEX_POINT('',#176);
#178=VERTEX_POINT('',#68);
#179=CARTESIAN_POINT('',(-3.549500093563E2,6.492385445816E-2,4.19E2));
#180=VERTEX_POINT('',#179);
#181=CARTESIAN_POINT('',(-3.648046621162E2,6.105718628239E0,0.E0));
#182=VERTEX_POINT('',#181);
#183=CARTESIAN_POINT('',(1.977226949280E-3,-5.773502353330E0,0.E0));
#184=DIRECTION('',(0.E0,0.E0,1.E0));
#185=DIRECTION('',(1.610385060817E-2,9.998703245899E-1,0.E0));
#186=AXIS2_PLACEMENT_3D('',#183,#184,#185);
#187=CYLINDRICAL_SURFACE('',#186,3.65E2);
#189=ORIENTED_EDGE('',*,*,#188,.F.);
#191=ORIENTED_EDGE('',*,*,#190,.F.);
#193=ORIENTED_EDGE('',*,*,#192,.F.);
#195=ORIENTED_EDGE('',*,*,#194,.T.);
#196=EDGE_LOOP('',(#189,#191,#193,#195));
#197=FACE_OUTER_BOUND('',#196,.F.);
#198=ADVANCED_FACE('',(#197),#187,.T.);
#199=CARTESIAN_POINT('',(1.977226949300E-3,-5.773502353330E0,0.E0));
#200=DIRECTION('',(0.E0,0.E0,1.E0));
#201=DIRECTION('',(1.610385060817E-2,9.998703245899E-1,0.E0));
#202=AXIS2_PLACEMENT_3D('',#199,#200,#201);
#203=CYLINDRICAL_SURFACE('',#202,3.65E2);
#204=ORIENTED_EDGE('',*,*,#188,.T.);
#206=ORIENTED_EDGE('',*,*,#205,.T.);
#208=ORIENTED_EDGE('',*,*,#207,.T.);
#210=ORIENTED_EDGE('',*,*,#209,.F.);
#211=EDGE_LOOP('',(#204,#206,#208,#210));
#212=FACE_OUTER_BOUND('',#211,.F.);
#213=ADVANCED_FACE('',(#212),#203,.T.);
#214=CARTESIAN_POINT('',(1.977226949236E-3,-5.773502353330E0,1.673004784680E3));
#215=DIRECTION('',(0.E0,0.E0,1.E0));
#216=DIRECTION('',(-9.998757809735E-1,1.576142831978E-2,0.E0));
#217=AXIS2_PLACEMENT_3D('',#214,#215,#216);
#218=CONICAL_SURFACE('',#217,3.63E2,3.E1);
#220=ORIENTED_EDGE('',*,*,#219,.F.);
#222=ORIENTED_EDGE('',*,*,#221,.T.);
#224=ORIENTED_EDGE('',*,*,#223,.T.);
#225=ORIENTED_EDGE('',*,*,#205,.F.);
#226=EDGE_LOOP('',(#220,#222,#224,#225));
#227=FACE_OUTER_BOUND('',#226,.F.);
#228=ADVANCED_FACE('',(#227),#218,.T.);
#229=CARTESIAN_POINT('',(1.977226949293E-3,-5.773502353330E0,1.673004784680E3));
#230=DIRECTION('',(0.E0,0.E0,1.E0));
#231=DIRECTION('',(9.999999413586E-1,3.424657534247E-4,0.E0));
#232=AXIS2_PLACEMENT_3D('',#229,#230,#231);
#233=CONICAL_SURFACE('',#232,3.63E2,3.E1);
#234=ORIENTED_EDGE('',*,*,#219,.T.);
#235=ORIENTED_EDGE('',*,*,#194,.F.);
#237=ORIENTED_EDGE('',*,*,#236,.F.);
#239=ORIENTED_EDGE('',*,*,#238,.T.);
#240=EDGE_LOOP('',(#234,#235,#237,#239));
#241=FACE_OUTER_BOUND('',#240,.F.);
#242=ADVANCED_FACE('',(#241),#233,.T.);
#243=CARTESIAN_POINT('',(-1.568351746839E2,-3.597257732190E2,2.095E2));
#244=DIRECTION('',(0.E0,0.E0,1.E0));
#245=DIRECTION('',(-4.826060564222E-1,8.758375387620E-1,0.E0));
#246=AXIS2_PLACEMENT_3D('',#243,#244,#245);
#247=CYLINDRICAL_SURFACE('',#246,4.105185745149E2);
#249=ORIENTED_EDGE('',*,*,#248,.F.);
#251=ORIENTED_EDGE('',*,*,#250,.T.);
#252=ORIENTED_EDGE('',*,*,#236,.T.);
#253=ORIENTED_EDGE('',*,*,#192,.T.);
#255=ORIENTED_EDGE('',*,*,#254,.T.);
#257=ORIENTED_EDGE('',*,*,#256,.T.);
#258=EDGE_LOOP('',(#249,#251,#252,#253,#255,#257));
#259=FACE_OUTER_BOUND('',#258,.F.);
#260=ADVANCED_FACE('',(#259),#247,.T.);
#261=CARTESIAN_POINT('',(1.977226949280E-3,-5.773502353330E0,0.E0));
#262=DIRECTION('',(0.E0,0.E0,1.E0));
#263=DIRECTION('',(1.610385060817E-2,9.998703245899E-1,0.E0));
#264=AXIS2_PLACEMENT_3D('',#261,#262,#263);
#265=CYLINDRICAL_SURFACE('',#264,3.55E2);
#267=ORIENTED_EDGE('',*,*,#266,.T.);
#269=ORIENTED_EDGE('',*,*,#268,.F.);
#270=ORIENTED_EDGE('',*,*,#248,.T.);
#272=ORIENTED_EDGE('',*,*,#271,.T.);
#273=EDGE_LOOP('',(#267,#269,#270,#272));
#274=FACE_OUTER_BOUND('',#273,.F.);
#275=ADVANCED_FACE('',(#274),#265,.F.);
#276=CARTESIAN_POINT('',(1.977226949300E-3,-5.773502353330E0,0.E0));
#277=DIRECTION('',(0.E0,0.E0,1.E0));
#278=DIRECTION('',(1.610385060817E-2,9.998703245899E-1,0.E0));
#279=AXIS2_PLACEMENT_3D('',#276,#277,#278);
#280=CYLINDRICAL_SURFACE('',#279,3.55E2);
#281=ORIENTED_EDGE('',*,*,#266,.F.);
#283=ORIENTED_EDGE('',*,*,#282,.T.);
#285=ORIENTED_EDGE('',*,*,#284,.F.);
#287=ORIENTED_EDGE('',*,*,#286,.F.);
#288=EDGE_LOOP('',(#281,#283,#285,#287));
#289=FACE_OUTER_BOUND('',#288,.F.);
#290=ADVANCED_FACE('',(#289),#280,.F.);
#291=CARTESIAN_POINT('',(1.977226949236E-3,-5.773502353330E0,1.154700538379E0));
#292=DIRECTION('',(0.E0,0.E0,-1.E0));
#293=DIRECTION('',(-9.998757809735E-1,1.576142831978E-2,0.E0));
#294=AXIS2_PLACEMENT_3D('',#291,#292,#293);
#295=CONICAL_SURFACE('',#294,3.57E2,6.E1);
#297=ORIENTED_EDGE('',*,*,#296,.F.);
#299=ORIENTED_EDGE('',*,*,#298,.T.);
#301=ORIENTED_EDGE('',*,*,#300,.T.);
#302=ORIENTED_EDGE('',*,*,#282,.F.);
#303=EDGE_LOOP('',(#297,#299,#301,#302));
#304=FACE_OUTER_BOUND('',#303,.F.);
#305=ADVANCED_FACE('',(#304),#295,.F.);
#306=CARTESIAN_POINT('',(1.977226949293E-3,-5.773502353330E0,1.154700538379E0));
#307=DIRECTION('',(0.E0,0.E0,-1.E0));
#308=DIRECTION('',(9.999999413586E-1,3.424657534247E-4,0.E0));
#309=AXIS2_PLACEMENT_3D('',#306,#307,#308);
#310=CONICAL_SURFACE('',#309,3.57E2,6.E1);
#311=ORIENTED_EDGE('',*,*,#296,.T.);
#312=ORIENTED_EDGE('',*,*,#271,.F.);
#313=ORIENTED_EDGE('',*,*,#256,.F.);
#315=ORIENTED_EDGE('',*,*,#314,.T.);
#316=EDGE_LOOP('',(#311,#312,#313,#315));
#317=FACE_OUTER_BOUND('',#316,.F.);
#318=ADVANCED_FACE('',(#317),#310,.F.);
#319=CARTESIAN_POINT('',(3.599552940793E2,-1.157088857227E1,0.E0));
#320=DIRECTION('',(0.E0,0.E0,-1.E0));
#321=DIRECTION('',(-1.576142831978E-2,-9.998757809735E-1,0.E0));
#322=AXIS2_PLACEMENT_3D('',#319,#320,#321);
#323=PLANE('',#322);
#325=ORIENTED_EDGE('',*,*,#324,.F.);
#326=ORIENTED_EDGE('',*,*,#314,.F.);
#327=ORIENTED_EDGE('',*,*,#254,.F.);
#328=ORIENTED_EDGE('',*,*,#190,.T.);
#329=EDGE_LOOP('',(#325,#326,#327,#328));
#330=FACE_OUTER_BOUND('',#329,.F.);
#331=ADVANCED_FACE('',(#330),#323,.T.);
#332=CARTESIAN_POINT('',(-3.777028908709E2,-1.126101604568E3,0.E0));
#333=DIRECTION('',(0.E0,0.E0,-1.E0));
#334=DIRECTION('',(1.576142831978E-2,9.998757809735E-1,0.E0));
#335=AXIS2_PLACEMENT_3D('',#332,#333,#334);
#336=PLANE('',#335);
#337=ORIENTED_EDGE('',*,*,#324,.T.);
#338=ORIENTED_EDGE('',*,*,#209,.T.);
#340=ORIENTED_EDGE('',*,*,#339,.F.);
#341=ORIENTED_EDGE('',*,*,#298,.F.);
#342=EDGE_LOOP('',(#337,#338,#340,#341));
#343=FACE_OUTER_BOUND('',#342,.F.);
#344=ADVANCED_FACE('',(#343),#336,.T.);
#345=CARTESIAN_POINT('',(-1.453553175840E2,3.530458938835E2,2.095E2));
#346=DIRECTION('',(0.E0,0.E0,1.E0));
#347=DIRECTION('',(-5.345661759436E-1,-8.451266198251E-1,0.E0));
#348=AXIS2_PLACEMENT_3D('',#345,#346,#347);
#349=CYLINDRICAL_SURFACE('',#348,4.105185745150E2);
#350=ORIENTED_EDGE('',*,*,#339,.T.);
#351=ORIENTED_EDGE('',*,*,#207,.F.);
#352=ORIENTED_EDGE('',*,*,#223,.F.);
#354=ORIENTED_EDGE('',*,*,#353,.T.);
#355=ORIENTED_EDGE('',*,*,#284,.T.);
#356=ORIENTED_EDGE('',*,*,#300,.F.);
#357=EDGE_LOOP('',(#350,#351,#352,#354,#355,#356));
#358=FACE_OUTER_BOUND('',#357,.F.);
#359=ADVANCED_FACE('',(#358),#349,.T.);
#360=CARTESIAN_POINT('',(-3.777028908709E2,-1.126101604568E3,4.19E2));
#361=DIRECTION('',(0.E0,0.E0,-1.E0));
#362=DIRECTION('',(1.576142831978E-2,9.998757809735E-1,0.E0));
#363=AXIS2_PLACEMENT_3D('',#360,#361,#362);
#364=PLANE('',#363);
#366=ORIENTED_EDGE('',*,*,#365,.F.);
#367=ORIENTED_EDGE('',*,*,#286,.T.);
#368=ORIENTED_EDGE('',*,*,#353,.F.);
#369=ORIENTED_EDGE('',*,*,#221,.F.);
#370=EDGE_LOOP('',(#366,#367,#368,#369));
#371=FACE_OUTER_BOUND('',#370,.F.);
#372=ADVANCED_FACE('',(#371),#364,.F.);
#373=CARTESIAN_POINT('',(3.599552940793E2,-1.157088857227E1,4.19E2));
#374=DIRECTION('',(0.E0,0.E0,-1.E0));
#375=DIRECTION('',(-1.576142831978E-2,-9.998757809735E-1,0.E0));
#376=AXIS2_PLACEMENT_3D('',#373,#374,#375);
#377=PLANE('',#376);
#378=ORIENTED_EDGE('',*,*,#365,.T.);
#379=ORIENTED_EDGE('',*,*,#238,.F.);
#380=ORIENTED_EDGE('',*,*,#250,.F.);
#381=ORIENTED_EDGE('',*,*,#268,.T.);
#382=EDGE_LOOP('',(#378,#379,#380,#381));
#383=FACE_OUTER_BOUND('',#382,.F.);
#384=ADVANCED_FACE('',(#383),#377,.F.);
#385=CLOSED_SHELL('',(#198,#213,#228,#242,#260,#275,#290,#305,#318,#331,#344,
#359,#372,#384));
#386=MANIFOLD_SOLID_BREP('',#385);
#388=DIMENSIONAL_EXPONENTS(0.E0,0.E0,0.E0,0.E0,0.E0,0.E0,0.E0);
#390=PLANE_ANGLE_MEASURE_WITH_UNIT(PLANE_ANGLE_MEASURE(1.745329251994E-2),#389);
#391=(CONVERSION_BASED_UNIT('DEGREE',#390)NAMED_UNIT(*)PLANE_ANGLE_UNIT());
#393=UNCERTAINTY_MEASURE_WITH_UNIT(LENGTH_MEASURE(1.E-3),#387,'closure',
'Maximum model space distance between geometric entities at asserted connectivities');
#394=(GEOMETRIC_REPRESENTATION_CONTEXT(3)GLOBAL_UNCERTAINTY_ASSIGNED_CONTEXT((
#393))GLOBAL_UNIT_ASSIGNED_CONTEXT((#387,#391,#392))REPRESENTATION_CONTEXT
('ID1','3'));
#396=APPLICATION_CONTEXT(
'CONFIGURATION CONTROLLED 3D DESIGNS OF MECHANICAL PARTS AND ASSEMBLIES');
#397=APPLICATION_PROTOCOL_DEFINITION('international standard',
'config_control_design',1994,#396);
#398=DESIGN_CONTEXT('',#396,'design');
#399=MECHANICAL_CONTEXT('',#396,'mechanical');
#400=PRODUCT('596341','596341','NOT SPECIFIED',(#399));
#401=PRODUCT_DEFINITION_FORMATION_WITH_SPECIFIED_SOURCE('1','LAST_VERSION',#400,
.MADE.);
#405=PRODUCT_CATEGORY('part','');
#406=PRODUCT_RELATED_PRODUCT_CATEGORY('detail','',(#400));
#407=PRODUCT_CATEGORY_RELATIONSHIP('','',#405,#406);
#408=SECURITY_CLASSIFICATION_LEVEL('unclassified');
#409=SECURITY_CLASSIFICATION('','',#408);
#410=CC_DESIGN_SECURITY_CLASSIFICATION(#409,(#401));
#411=APPROVAL_STATUS('approved');
#412=APPROVAL(#411,'');
#413=CC_DESIGN_APPROVAL(#412,(#409,#401,#402));
#414=CALENDAR_DATE(121,24,5);
#415=COORDINATED_UNIVERSAL_TIME_OFFSET(2,0,.AHEAD.);
#416=LOCAL_TIME(14,17,0.E0,#415);
#417=DATE_AND_TIME(#414,#416);
#418=APPROVAL_DATE_TIME(#417,#412);
#419=DATE_TIME_ROLE('creation_date');
#420=CC_DESIGN_DATE_AND_TIME_ASSIGNMENT(#417,#419,(#402));
#421=DATE_TIME_ROLE('classification_date');
#422=CC_DESIGN_DATE_AND_TIME_ASSIGNMENT(#417,#421,(#409));
#423=PERSON('UNSPECIFIED','UNSPECIFIED',$,$,$,$);
#424=ORGANIZATION('UNSPECIFIED','UNSPECIFIED','UNSPECIFIED');
#425=PERSON_AND_ORGANIZATION(#423,#424);
#426=APPROVAL_ROLE('approver');
#427=APPROVAL_PERSON_ORGANIZATION(#425,#412,#426);
#428=PERSON_AND_ORGANIZATION_ROLE('creator');
#429=CC_DESIGN_PERSON_AND_ORGANIZATION_ASSIGNMENT(#425,#428,(#401,#402));
#430=PERSON_AND_ORGANIZATION_ROLE('design_supplier');
#431=CC_DESIGN_PERSON_AND_ORGANIZATION_ASSIGNMENT(#425,#430,(#401));
#432=PERSON_AND_ORGANIZATION_ROLE('classification_officer');
#433=CC_DESIGN_PERSON_AND_ORGANIZATION_ASSIGNMENT(#425,#432,(#409));
#434=PERSON_AND_ORGANIZATION_ROLE('design_owner');
#435=CC_DESIGN_PERSON_AND_ORGANIZATION_ASSIGNMENT(#425,#434,(#400));
#13=CIRCLE('',#12,3.65E2);
#18=CIRCLE('',#17,3.65E2);
#29=B_SPLINE_CURVE_WITH_KNOTS('',3,(#23,#24,#25,#26,#27,#28),.UNSPECIFIED.,.F.,
.F.,(4,1,1,4),(0.E0,3.333333333333E-1,6.666666666667E-1,1.E0),.UNSPECIFIED.);
#40=B_SPLINE_CURVE_WITH_KNOTS('',3,(#34,#35,#36,#37,#38,#39),.UNSPECIFIED.,.F.,
.F.,(4,1,1,4),(0.E0,3.333333333333E-1,6.666666666667E-1,1.E0),.UNSPECIFIED.);
#53=CIRCLE('',#52,3.55E2);
#58=CIRCLE('',#57,3.55E2);
#69=B_SPLINE_CURVE_WITH_KNOTS('',3,(#63,#64,#65,#66,#67,#68),.UNSPECIFIED.,.F.,
.F.,(4,1,1,4),(0.E0,3.333333333333E-1,6.666666666667E-1,1.E0),.UNSPECIFIED.);
#80=B_SPLINE_CURVE_WITH_KNOTS('',3,(#74,#75,#76,#77,#78,#79),.UNSPECIFIED.,.F.,
.F.,(4,1,1,4),(0.E0,3.333333333333E-1,6.666666666667E-1,1.E0),.UNSPECIFIED.);
#89=CIRCLE('',#88,3.59E2);
#94=CIRCLE('',#93,4.105185745149E2);
#99=CIRCLE('',#98,3.65E2);
#104=CIRCLE('',#103,3.65E2);
#109=CIRCLE('',#108,4.105185745150E2);
#114=CIRCLE('',#113,3.59E2);
#119=CIRCLE('',#118,3.55E2);
#124=CIRCLE('',#123,4.105185745150E2);
#129=CIRCLE('',#128,3.61E2);
#138=CIRCLE('',#137,3.61E2);
#143=CIRCLE('',#142,4.105185745149E2);
#148=CIRCLE('',#147,3.55E2);
#188=EDGE_CURVE('',#152,#156,#4,.T.);
#190=EDGE_CURVE('',#151,#152,#99,.T.);
#192=EDGE_CURVE('',#154,#151,#8,.T.);
#194=EDGE_CURVE('',#154,#156,#13,.T.);
#205=EDGE_CURVE('',#156,#175,#18,.T.);
#207=EDGE_CURVE('',#175,#182,#22,.T.);
#209=EDGE_CURVE('',#152,#182,#104,.T.);
#219=EDGE_CURVE('',#164,#156,#33,.T.);
#221=EDGE_CURVE('',#164,#174,#129,.T.);
#223=EDGE_CURVE('',#174,#175,#29,.T.);
#236=EDGE_CURVE('',#163,#154,#40,.T.);
#238=EDGE_CURVE('',#163,#164,#138,.T.);
#248=EDGE_CURVE('',#166,#170,#48,.T.);
#250=EDGE_CURVE('',#166,#163,#143,.T.);
#254=EDGE_CURVE('',#151,#159,#94,.T.);
#256=EDGE_CURVE('',#159,#170,#80,.T.);
#266=EDGE_CURVE('',#172,#168,#44,.T.);
#268=EDGE_CURVE('',#166,#168,#148,.T.);
#271=EDGE_CURVE('',#170,#172,#53,.T.);
#282=EDGE_CURVE('',#172,#178,#58,.T.);
#284=EDGE_CURVE('',#180,#178,#62,.T.);
#286=EDGE_CURVE('',#168,#180,#119,.T.);
#296=EDGE_CURVE('',#160,#172,#73,.T.);
#298=EDGE_CURVE('',#160,#177,#114,.T.);
#300=EDGE_CURVE('',#177,#178,#69,.T.);
#314=EDGE_CURVE('',#159,#160,#89,.T.);
#324=EDGE_CURVE('',#160,#152,#84,.T.);
#339=EDGE_CURVE('',#177,#182,#109,.T.);
#353=EDGE_CURVE('',#174,#180,#124,.T.);
#365=EDGE_CURVE('',#168,#164,#133,.T.);
#387=(LENGTH_UNIT()NAMED_UNIT(*)SI_UNIT(.MILLI.,.METRE.));
#389=(NAMED_UNIT(*)PLANE_ANGLE_UNIT()SI_UNIT($,.RADIAN.));
#392=(NAMED_UNIT(*)SI_UNIT($,.STERADIAN.)SOLID_ANGLE_UNIT());
#395=ADVANCED_BREP_SHAPE_REPRESENTATION('',(#386),#394);
#402=PRODUCT_DEFINITION('design','',#401,#398);
#403=PRODUCT_DEFINITION_SHAPE('','SHAPE FOR 596341.',#402);
#404=SHAPE_DEFINITION_REPRESENTATION(#403,#395);
ENDSEC;
END-ISO-10303-21;
