ISO-10303-21;
HEADER;
FILE_DESCRIPTION((''),'2;1');
FILE_NAME('596340','2021-05-24T14:15:37',('mkho'),(''),
'CREO PARAMETRIC BY PTC INC, 2018500','CREO PARAMETRIC BY PTC INC, 2018500','');
FILE_SCHEMA(('CONFIG_CONTROL_DESIGN'));
ENDSEC;
DATA;
#1=CARTESIAN_POINT('',(0.E0,0.E0,0.E0));
#2=DIRECTION('',(0.E0,0.E0,1.E0));
#3=DIRECTION('',(0.E0,1.E0,0.E0));
#4=AXIS2_PLACEMENT_3D('',#1,#2,#3);
#6=CARTESIAN_POINT('',(0.E0,0.E0,0.E0));
#7=DIRECTION('',(0.E0,0.E0,1.E0));
#8=DIRECTION('',(0.E0,-1.E0,0.E0));
#9=AXIS2_PLACEMENT_3D('',#6,#7,#8);
#11=CARTESIAN_POINT('',(0.E0,0.E0,0.E0));
#12=DIRECTION('',(0.E0,0.E0,-1.E0));
#13=DIRECTION('',(0.E0,1.E0,0.E0));
#14=AXIS2_PLACEMENT_3D('',#11,#12,#13);
#16=CARTESIAN_POINT('',(0.E0,0.E0,0.E0));
#17=DIRECTION('',(0.E0,0.E0,-1.E0));
#18=DIRECTION('',(0.E0,-1.E0,0.E0));
#19=AXIS2_PLACEMENT_3D('',#16,#17,#18);
#21=CARTESIAN_POINT('',(3.425E2,0.E0,0.E0));
#22=DIRECTION('',(0.E0,0.E0,1.E0));
#23=DIRECTION('',(0.E0,1.E0,0.E0));
#24=AXIS2_PLACEMENT_3D('',#21,#22,#23);
#26=CARTESIAN_POINT('',(3.425E2,0.E0,0.E0));
#27=DIRECTION('',(0.E0,0.E0,1.E0));
#28=DIRECTION('',(0.E0,-1.E0,0.E0));
#29=AXIS2_PLACEMENT_3D('',#26,#27,#28);
#31=CARTESIAN_POINT('',(-1.7125E2,2.966137007962E2,0.E0));
#32=DIRECTION('',(0.E0,0.E0,1.E0));
#33=DIRECTION('',(-8.660254037845E-1,-4.999999999999E-1,0.E0));
#34=AXIS2_PLACEMENT_3D('',#31,#32,#33);
#36=CARTESIAN_POINT('',(-1.7125E2,2.966137007962E2,0.E0));
#37=DIRECTION('',(0.E0,0.E0,1.E0));
#38=DIRECTION('',(8.660254037844E-1,5.E-1,0.E0));
#39=AXIS2_PLACEMENT_3D('',#36,#37,#38);
#41=CARTESIAN_POINT('',(-1.7125E2,-2.966137007962E2,0.E0));
#42=DIRECTION('',(0.E0,0.E0,1.E0));
#43=DIRECTION('',(8.660254037844E-1,-5.000000000001E-1,0.E0));
#44=AXIS2_PLACEMENT_3D('',#41,#42,#43);
#46=CARTESIAN_POINT('',(-1.7125E2,-2.966137007962E2,0.E0));
#47=DIRECTION('',(0.E0,0.E0,1.E0));
#48=DIRECTION('',(-8.660254037844E-1,5.E-1,0.E0));
#49=AXIS2_PLACEMENT_3D('',#46,#47,#48);
#51=DIRECTION('',(0.E0,0.E0,1.E0));
#52=VECTOR('',#51,1.E1);
#53=CARTESIAN_POINT('',(4.347496136973E-14,3.55E2,0.E0));
#54=LINE('',#53,#52);
#55=DIRECTION('',(0.E0,0.E0,1.E0));
#56=VECTOR('',#55,1.E1);
#57=CARTESIAN_POINT('',(-4.347496136973E-14,-3.55E2,0.E0));
#58=LINE('',#57,#56);
#59=CARTESIAN_POINT('',(0.E0,0.E0,1.E1));
#60=DIRECTION('',(0.E0,0.E0,1.E0));
#61=DIRECTION('',(0.E0,1.E0,0.E0));
#62=AXIS2_PLACEMENT_3D('',#59,#60,#61);
#64=CARTESIAN_POINT('',(0.E0,0.E0,1.E1));
#65=DIRECTION('',(0.E0,0.E0,1.E0));
#66=DIRECTION('',(0.E0,-1.E0,0.E0));
#67=AXIS2_PLACEMENT_3D('',#64,#65,#66);
#69=CARTESIAN_POINT('',(0.E0,0.E0,1.E1));
#70=DIRECTION('',(0.E0,0.E0,-1.E0));
#71=DIRECTION('',(0.E0,1.E0,0.E0));
#72=AXIS2_PLACEMENT_3D('',#69,#70,#71);
#74=CARTESIAN_POINT('',(0.E0,0.E0,1.E1));
#75=DIRECTION('',(0.E0,0.E0,-1.E0));
#76=DIRECTION('',(0.E0,-1.E0,0.E0));
#77=AXIS2_PLACEMENT_3D('',#74,#75,#76);
#79=CARTESIAN_POINT('',(3.425E2,0.E0,1.E1));
#80=DIRECTION('',(0.E0,0.E0,1.E0));
#81=DIRECTION('',(0.E0,1.E0,0.E0));
#82=AXIS2_PLACEMENT_3D('',#79,#80,#81);
#84=CARTESIAN_POINT('',(3.425E2,0.E0,1.E1));
#85=DIRECTION('',(0.E0,0.E0,1.E0));
#86=DIRECTION('',(0.E0,-1.E0,0.E0));
#87=AXIS2_PLACEMENT_3D('',#84,#85,#86);
#89=CARTESIAN_POINT('',(-1.7125E2,2.966137007962E2,1.E1));
#90=DIRECTION('',(0.E0,0.E0,1.E0));
#91=DIRECTION('',(-8.660254037845E-1,-4.999999999999E-1,0.E0));
#92=AXIS2_PLACEMENT_3D('',#89,#90,#91);
#94=CARTESIAN_POINT('',(-1.7125E2,2.966137007962E2,1.E1));
#95=DIRECTION('',(0.E0,0.E0,1.E0));
#96=DIRECTION('',(8.660254037844E-1,5.E-1,0.E0));
#97=AXIS2_PLACEMENT_3D('',#94,#95,#96);
#99=CARTESIAN_POINT('',(-1.7125E2,-2.966137007962E2,1.E1));
#100=DIRECTION('',(0.E0,0.E0,1.E0));
#101=DIRECTION('',(8.660254037844E-1,-5.E-1,0.E0));
#102=AXIS2_PLACEMENT_3D('',#99,#100,#101);
#104=CARTESIAN_POINT('',(-1.7125E2,-2.966137007962E2,1.E1));
#105=DIRECTION('',(0.E0,0.E0,1.E0));
#106=DIRECTION('',(-8.660254037844E-1,5.E-1,0.E0));
#107=AXIS2_PLACEMENT_3D('',#104,#105,#106);
#109=DIRECTION('',(0.E0,0.E0,1.E0));
#110=VECTOR('',#109,1.E1);
#111=CARTESIAN_POINT('',(4.041334437186E-14,3.3E2,0.E0));
#112=LINE('',#111,#110);
#113=DIRECTION('',(0.E0,0.E0,1.E0));
#114=VECTOR('',#113,1.E1);
#115=CARTESIAN_POINT('',(-4.041334437186E-14,-3.3E2,0.E0));
#116=LINE('',#115,#114);
#117=DIRECTION('',(0.E0,0.E0,-1.E0));
#118=VECTOR('',#117,1.E1);
#119=CARTESIAN_POINT('',(3.425E2,6.75E0,1.E1));
#120=LINE('',#119,#118);
#121=DIRECTION('',(0.E0,0.E0,-1.E0));
#122=VECTOR('',#121,1.E1);
#123=CARTESIAN_POINT('',(3.425E2,-6.75E0,1.E1));
#124=LINE('',#123,#122);
#125=DIRECTION('',(0.E0,0.E0,-1.E0));
#126=VECTOR('',#125,1.E1);
#127=CARTESIAN_POINT('',(-1.770956714755E2,2.932387007962E2,1.E1));
#128=LINE('',#127,#126);
#129=DIRECTION('',(0.E0,0.E0,-1.E0));
#130=VECTOR('',#129,1.E1);
#131=CARTESIAN_POINT('',(-1.654043285245E2,2.999887007962E2,1.E1));
#132=LINE('',#131,#130);
#133=DIRECTION('',(-1.136868377216E-14,-1.136868377216E-14,-1.E0));
#134=VECTOR('',#133,1.E1);
#135=CARTESIAN_POINT('',(-1.654043285245E2,-2.999887007962E2,1.E1));
#136=LINE('',#135,#134);
#137=DIRECTION('',(0.E0,0.E0,-1.E0));
#138=VECTOR('',#137,1.E1);
#139=CARTESIAN_POINT('',(-1.770956714755E2,-2.932387007962E2,1.E1));
#140=LINE('',#139,#138);
#141=CARTESIAN_POINT('',(4.347496136973E-14,3.55E2,0.E0));
#142=CARTESIAN_POINT('',(-8.694992273946E-14,-3.55E2,0.E0));
#143=VERTEX_POINT('',#141);
#144=VERTEX_POINT('',#142);
#145=CARTESIAN_POINT('',(4.041334437186E-14,3.3E2,0.E0));
#146=CARTESIAN_POINT('',(0.E0,-3.3E2,0.E0));
#147=VERTEX_POINT('',#145);
#148=VERTEX_POINT('',#146);
#149=CARTESIAN_POINT('',(4.347496136973E-14,3.55E2,1.E1));
#150=CARTESIAN_POINT('',(-8.694992273946E-14,-3.55E2,1.E1));
#151=VERTEX_POINT('',#149);
#152=VERTEX_POINT('',#150);
#153=CARTESIAN_POINT('',(4.041334437186E-14,3.3E2,1.E1));
#154=CARTESIAN_POINT('',(0.E0,-3.3E2,1.E1));
#155=VERTEX_POINT('',#153);
#156=VERTEX_POINT('',#154);
#157=CARTESIAN_POINT('',(3.425E2,6.75E0,0.E0));
#158=CARTESIAN_POINT('',(3.425E2,-6.75E0,0.E0));
#159=VERTEX_POINT('',#157);
#160=VERTEX_POINT('',#158);
#161=CARTESIAN_POINT('',(3.425E2,6.75E0,1.E1));
#162=CARTESIAN_POINT('',(3.425E2,-6.75E0,1.E1));
#163=VERTEX_POINT('',#161);
#164=VERTEX_POINT('',#162);
#165=CARTESIAN_POINT('',(-1.770956714755E2,2.932387007962E2,0.E0));
#166=CARTESIAN_POINT('',(-1.654043285245E2,2.999887007962E2,0.E0));
#167=VERTEX_POINT('',#165);
#168=VERTEX_POINT('',#166);
#169=CARTESIAN_POINT('',(-1.770956714755E2,2.932387007962E2,1.E1));
#170=CARTESIAN_POINT('',(-1.654043285245E2,2.999887007962E2,1.E1));
#171=VERTEX_POINT('',#169);
#172=VERTEX_POINT('',#170);
#173=CARTESIAN_POINT('',(-1.654043285245E2,-2.999887007962E2,0.E0));
#174=CARTESIAN_POINT('',(-1.770956714755E2,-2.932387007962E2,0.E0));
#175=VERTEX_POINT('',#173);
#176=VERTEX_POINT('',#174);
#177=CARTESIAN_POINT('',(-1.654043285245E2,-2.999887007962E2,1.E1));
#178=CARTESIAN_POINT('',(-1.770956714755E2,-2.932387007962E2,1.E1));
#179=VERTEX_POINT('',#177);
#180=VERTEX_POINT('',#178);
#181=CARTESIAN_POINT('',(0.E0,0.E0,0.E0));
#182=DIRECTION('',(0.E0,0.E0,1.E0));
#183=DIRECTION('',(0.E0,1.E0,0.E0));
#184=AXIS2_PLACEMENT_3D('',#181,#182,#183);
#185=PLANE('',#184);
#187=ORIENTED_EDGE('',*,*,#186,.T.);
#189=ORIENTED_EDGE('',*,*,#188,.T.);
#190=EDGE_LOOP('',(#187,#189));
#191=FACE_OUTER_BOUND('',#190,.F.);
#193=ORIENTED_EDGE('',*,*,#192,.T.);
#195=ORIENTED_EDGE('',*,*,#194,.T.);
#196=EDGE_LOOP('',(#193,#195));
#197=FACE_BOUND('',#196,.F.);
#199=ORIENTED_EDGE('',*,*,#198,.F.);
#201=ORIENTED_EDGE('',*,*,#200,.F.);
#202=EDGE_LOOP('',(#199,#201));
#203=FACE_BOUND('',#202,.F.);
#205=ORIENTED_EDGE('',*,*,#204,.F.);
#207=ORIENTED_EDGE('',*,*,#206,.F.);
#208=EDGE_LOOP('',(#205,#207));
#209=FACE_BOUND('',#208,.F.);
#211=ORIENTED_EDGE('',*,*,#210,.F.);
#213=ORIENTED_EDGE('',*,*,#212,.F.);
#214=EDGE_LOOP('',(#211,#213));
#215=FACE_BOUND('',#214,.F.);
#216=ADVANCED_FACE('',(#191,#197,#203,#209,#215),#185,.F.);
#217=CARTESIAN_POINT('',(0.E0,0.E0,0.E0));
#218=DIRECTION('',(0.E0,0.E0,1.E0));
#219=DIRECTION('',(0.E0,1.E0,0.E0));
#220=AXIS2_PLACEMENT_3D('',#217,#218,#219);
#221=CYLINDRICAL_SURFACE('',#220,3.55E2);
#222=ORIENTED_EDGE('',*,*,#186,.F.);
#224=ORIENTED_EDGE('',*,*,#223,.T.);
#226=ORIENTED_EDGE('',*,*,#225,.T.);
#228=ORIENTED_EDGE('',*,*,#227,.F.);
#229=EDGE_LOOP('',(#222,#224,#226,#228));
#230=FACE_OUTER_BOUND('',#229,.F.);
#231=ADVANCED_FACE('',(#230),#221,.T.);
#232=CARTESIAN_POINT('',(0.E0,0.E0,0.E0));
#233=DIRECTION('',(0.E0,0.E0,1.E0));
#234=DIRECTION('',(0.E0,1.E0,0.E0));
#235=AXIS2_PLACEMENT_3D('',#232,#233,#234);
#236=CYLINDRICAL_SURFACE('',#235,3.55E2);
#237=ORIENTED_EDGE('',*,*,#188,.F.);
#238=ORIENTED_EDGE('',*,*,#227,.T.);
#240=ORIENTED_EDGE('',*,*,#239,.T.);
#241=ORIENTED_EDGE('',*,*,#223,.F.);
#242=EDGE_LOOP('',(#237,#238,#240,#241));
#243=FACE_OUTER_BOUND('',#242,.F.);
#244=ADVANCED_FACE('',(#243),#236,.T.);
#245=CARTESIAN_POINT('',(0.E0,0.E0,1.E1));
#246=DIRECTION('',(0.E0,0.E0,1.E0));
#247=DIRECTION('',(0.E0,1.E0,0.E0));
#248=AXIS2_PLACEMENT_3D('',#245,#246,#247);
#249=PLANE('',#248);
#250=ORIENTED_EDGE('',*,*,#225,.F.);
#251=ORIENTED_EDGE('',*,*,#239,.F.);
#252=EDGE_LOOP('',(#250,#251));
#253=FACE_OUTER_BOUND('',#252,.F.);
#255=ORIENTED_EDGE('',*,*,#254,.F.);
#257=ORIENTED_EDGE('',*,*,#256,.F.);
#258=EDGE_LOOP('',(#255,#257));
#259=FACE_BOUND('',#258,.F.);
#261=ORIENTED_EDGE('',*,*,#260,.T.);
#263=ORIENTED_EDGE('',*,*,#262,.T.);
#264=EDGE_LOOP('',(#261,#263));
#265=FACE_BOUND('',#264,.F.);
#267=ORIENTED_EDGE('',*,*,#266,.T.);
#269=ORIENTED_EDGE('',*,*,#268,.T.);
#270=EDGE_LOOP('',(#267,#269));
#271=FACE_BOUND('',#270,.F.);
#273=ORIENTED_EDGE('',*,*,#272,.T.);
#275=ORIENTED_EDGE('',*,*,#274,.T.);
#276=EDGE_LOOP('',(#273,#275));
#277=FACE_BOUND('',#276,.F.);
#278=ADVANCED_FACE('',(#253,#259,#265,#271,#277),#249,.T.);
#279=CARTESIAN_POINT('',(0.E0,0.E0,0.E0));
#280=DIRECTION('',(0.E0,0.E0,1.E0));
#281=DIRECTION('',(0.E0,1.E0,0.E0));
#282=AXIS2_PLACEMENT_3D('',#279,#280,#281);
#283=CYLINDRICAL_SURFACE('',#282,3.3E2);
#284=ORIENTED_EDGE('',*,*,#192,.F.);
#286=ORIENTED_EDGE('',*,*,#285,.T.);
#287=ORIENTED_EDGE('',*,*,#254,.T.);
#289=ORIENTED_EDGE('',*,*,#288,.F.);
#290=EDGE_LOOP('',(#284,#286,#287,#289));
#291=FACE_OUTER_BOUND('',#290,.F.);
#292=ADVANCED_FACE('',(#291),#283,.F.);
#293=CARTESIAN_POINT('',(0.E0,0.E0,0.E0));
#294=DIRECTION('',(0.E0,0.E0,1.E0));
#295=DIRECTION('',(0.E0,1.E0,0.E0));
#296=AXIS2_PLACEMENT_3D('',#293,#294,#295);
#297=CYLINDRICAL_SURFACE('',#296,3.3E2);
#298=ORIENTED_EDGE('',*,*,#194,.F.);
#299=ORIENTED_EDGE('',*,*,#288,.T.);
#300=ORIENTED_EDGE('',*,*,#256,.T.);
#301=ORIENTED_EDGE('',*,*,#285,.F.);
#302=EDGE_LOOP('',(#298,#299,#300,#301));
#303=FACE_OUTER_BOUND('',#302,.F.);
#304=ADVANCED_FACE('',(#303),#297,.F.);
#305=CARTESIAN_POINT('',(3.425E2,0.E0,1.E1));
#306=DIRECTION('',(0.E0,0.E0,1.E0));
#307=DIRECTION('',(0.E0,1.E0,0.E0));
#308=AXIS2_PLACEMENT_3D('',#305,#306,#307);
#309=CYLINDRICAL_SURFACE('',#308,6.75E0);
#310=ORIENTED_EDGE('',*,*,#198,.T.);
#312=ORIENTED_EDGE('',*,*,#311,.F.);
#313=ORIENTED_EDGE('',*,*,#260,.F.);
#315=ORIENTED_EDGE('',*,*,#314,.T.);
#316=EDGE_LOOP('',(#310,#312,#313,#315));
#317=FACE_OUTER_BOUND('',#316,.F.);
#318=ADVANCED_FACE('',(#317),#309,.F.);
#319=CARTESIAN_POINT('',(3.425E2,0.E0,1.E1));
#320=DIRECTION('',(0.E0,0.E0,1.E0));
#321=DIRECTION('',(0.E0,1.E0,0.E0));
#322=AXIS2_PLACEMENT_3D('',#319,#320,#321);
#323=CYLINDRICAL_SURFACE('',#322,6.75E0);
#324=ORIENTED_EDGE('',*,*,#200,.T.);
#325=ORIENTED_EDGE('',*,*,#314,.F.);
#326=ORIENTED_EDGE('',*,*,#262,.F.);
#327=ORIENTED_EDGE('',*,*,#311,.T.);
#328=EDGE_LOOP('',(#324,#325,#326,#327));
#329=FACE_OUTER_BOUND('',#328,.F.);
#330=ADVANCED_FACE('',(#329),#323,.F.);
#331=CARTESIAN_POINT('',(-1.7125E2,2.966137007962E2,1.E1));
#332=DIRECTION('',(0.E0,0.E0,1.E0));
#333=DIRECTION('',(-8.660254037844E-1,-5.E-1,0.E0));
#334=AXIS2_PLACEMENT_3D('',#331,#332,#333);
#335=CYLINDRICAL_SURFACE('',#334,6.75E0);
#336=ORIENTED_EDGE('',*,*,#204,.T.);
#338=ORIENTED_EDGE('',*,*,#337,.F.);
#339=ORIENTED_EDGE('',*,*,#266,.F.);
#341=ORIENTED_EDGE('',*,*,#340,.T.);
#342=EDGE_LOOP('',(#336,#338,#339,#341));
#343=FACE_OUTER_BOUND('',#342,.F.);
#344=ADVANCED_FACE('',(#343),#335,.F.);
#345=CARTESIAN_POINT('',(-1.7125E2,2.966137007962E2,1.E1));
#346=DIRECTION('',(0.E0,0.E0,1.E0));
#347=DIRECTION('',(-8.660254037844E-1,-5.E-1,0.E0));
#348=AXIS2_PLACEMENT_3D('',#345,#346,#347);
#349=CYLINDRICAL_SURFACE('',#348,6.75E0);
#350=ORIENTED_EDGE('',*,*,#206,.T.);
#351=ORIENTED_EDGE('',*,*,#340,.F.);
#352=ORIENTED_EDGE('',*,*,#268,.F.);
#353=ORIENTED_EDGE('',*,*,#337,.T.);
#354=EDGE_LOOP('',(#350,#351,#352,#353));
#355=FACE_OUTER_BOUND('',#354,.F.);
#356=ADVANCED_FACE('',(#355),#349,.F.);
#357=CARTESIAN_POINT('',(-1.7125E2,-2.966137007962E2,1.E1));
#358=DIRECTION('',(0.E0,0.E0,1.E0));
#359=DIRECTION('',(8.660254037844E-1,-5.E-1,0.E0));
#360=AXIS2_PLACEMENT_3D('',#357,#358,#359);
#361=CYLINDRICAL_SURFACE('',#360,6.75E0);
#362=ORIENTED_EDGE('',*,*,#210,.T.);
#364=ORIENTED_EDGE('',*,*,#363,.F.);
#365=ORIENTED_EDGE('',*,*,#272,.F.);
#367=ORIENTED_EDGE('',*,*,#366,.T.);
#368=EDGE_LOOP('',(#362,#364,#365,#367));
#369=FACE_OUTER_BOUND('',#368,.F.);
#370=ADVANCED_FACE('',(#369),#361,.F.);
#371=CARTESIAN_POINT('',(-1.7125E2,-2.966137007962E2,1.E1));
#372=DIRECTION('',(0.E0,0.E0,1.E0));
#373=DIRECTION('',(8.660254037844E-1,-5.E-1,0.E0));
#374=AXIS2_PLACEMENT_3D('',#371,#372,#373);
#375=CYLINDRICAL_SURFACE('',#374,6.75E0);
#376=ORIENTED_EDGE('',*,*,#212,.T.);
#377=ORIENTED_EDGE('',*,*,#366,.F.);
#378=ORIENTED_EDGE('',*,*,#274,.F.);
#379=ORIENTED_EDGE('',*,*,#363,.T.);
#380=EDGE_LOOP('',(#376,#377,#378,#379));
#381=FACE_OUTER_BOUND('',#380,.F.);
#382=ADVANCED_FACE('',(#381),#375,.F.);
#383=CLOSED_SHELL('',(#216,#231,#244,#278,#292,#304,#318,#330,#344,#356,#370,
#382));
#384=MANIFOLD_SOLID_BREP('',#383);
#386=DIMENSIONAL_EXPONENTS(0.E0,0.E0,0.E0,0.E0,0.E0,0.E0,0.E0);
#388=PLANE_ANGLE_MEASURE_WITH_UNIT(PLANE_ANGLE_MEASURE(1.745329251994E-2),#387);
#389=(CONVERSION_BASED_UNIT('DEGREE',#388)NAMED_UNIT(*)PLANE_ANGLE_UNIT());
#391=UNCERTAINTY_MEASURE_WITH_UNIT(LENGTH_MEASURE(1.E-3),#385,'closure',
'Maximum model space distance between geometric entities at asserted connectivities');
#392=(GEOMETRIC_REPRESENTATION_CONTEXT(3)GLOBAL_UNCERTAINTY_ASSIGNED_CONTEXT((
#391))GLOBAL_UNIT_ASSIGNED_CONTEXT((#385,#389,#390))REPRESENTATION_CONTEXT
('ID1','3'));
#394=APPLICATION_CONTEXT(
'CONFIGURATION CONTROLLED 3D DESIGNS OF MECHANICAL PARTS AND ASSEMBLIES');
#395=APPLICATION_PROTOCOL_DEFINITION('international standard',
'config_control_design',1994,#394);
#396=DESIGN_CONTEXT('',#394,'design');
#397=MECHANICAL_CONTEXT('',#394,'mechanical');
#398=PRODUCT('596340','596340','NOT SPECIFIED',(#397));
#399=PRODUCT_DEFINITION_FORMATION_WITH_SPECIFIED_SOURCE('1','LAST_VERSION',#398,
.MADE.);
#403=PRODUCT_CATEGORY('part','');
#404=PRODUCT_RELATED_PRODUCT_CATEGORY('detail','',(#398));
#405=PRODUCT_CATEGORY_RELATIONSHIP('','',#403,#404);
#406=SECURITY_CLASSIFICATION_LEVEL('unclassified');
#407=SECURITY_CLASSIFICATION('','',#406);
#408=CC_DESIGN_SECURITY_CLASSIFICATION(#407,(#399));
#409=APPROVAL_STATUS('approved');
#410=APPROVAL(#409,'');
#411=CC_DESIGN_APPROVAL(#410,(#407,#399,#400));
#412=CALENDAR_DATE(121,24,5);
#413=COORDINATED_UNIVERSAL_TIME_OFFSET(2,0,.AHEAD.);
#414=LOCAL_TIME(14,15,3.7E1,#413);
#415=DATE_AND_TIME(#412,#414);
#416=APPROVAL_DATE_TIME(#415,#410);
#417=DATE_TIME_ROLE('creation_date');
#418=CC_DESIGN_DATE_AND_TIME_ASSIGNMENT(#415,#417,(#400));
#419=DATE_TIME_ROLE('classification_date');
#420=CC_DESIGN_DATE_AND_TIME_ASSIGNMENT(#415,#419,(#407));
#421=PERSON('UNSPECIFIED','UNSPECIFIED',$,$,$,$);
#422=ORGANIZATION('UNSPECIFIED','UNSPECIFIED','UNSPECIFIED');
#423=PERSON_AND_ORGANIZATION(#421,#422);
#424=APPROVAL_ROLE('approver');
#425=APPROVAL_PERSON_ORGANIZATION(#423,#410,#424);
#426=PERSON_AND_ORGANIZATION_ROLE('creator');
#427=CC_DESIGN_PERSON_AND_ORGANIZATION_ASSIGNMENT(#423,#426,(#399,#400));
#428=PERSON_AND_ORGANIZATION_ROLE('design_supplier');
#429=CC_DESIGN_PERSON_AND_ORGANIZATION_ASSIGNMENT(#423,#428,(#399));
#430=PERSON_AND_ORGANIZATION_ROLE('classification_officer');
#431=CC_DESIGN_PERSON_AND_ORGANIZATION_ASSIGNMENT(#423,#430,(#407));
#432=PERSON_AND_ORGANIZATION_ROLE('design_owner');
#433=CC_DESIGN_PERSON_AND_ORGANIZATION_ASSIGNMENT(#423,#432,(#398));
#5=CIRCLE('',#4,3.55E2);
#10=CIRCLE('',#9,3.55E2);
#15=CIRCLE('',#14,3.3E2);
#20=CIRCLE('',#19,3.3E2);
#25=CIRCLE('',#24,6.75E0);
#30=CIRCLE('',#29,6.75E0);
#35=CIRCLE('',#34,6.75E0);
#40=CIRCLE('',#39,6.75E0);
#45=CIRCLE('',#44,6.75E0);
#50=CIRCLE('',#49,6.75E0);
#63=CIRCLE('',#62,3.55E2);
#68=CIRCLE('',#67,3.55E2);
#73=CIRCLE('',#72,3.3E2);
#78=CIRCLE('',#77,3.3E2);
#83=CIRCLE('',#82,6.75E0);
#88=CIRCLE('',#87,6.75E0);
#93=CIRCLE('',#92,6.75E0);
#98=CIRCLE('',#97,6.75E0);
#103=CIRCLE('',#102,6.75E0);
#108=CIRCLE('',#107,6.75E0);
#186=EDGE_CURVE('',#143,#144,#5,.T.);
#188=EDGE_CURVE('',#144,#143,#10,.T.);
#192=EDGE_CURVE('',#147,#148,#15,.T.);
#194=EDGE_CURVE('',#148,#147,#20,.T.);
#198=EDGE_CURVE('',#159,#160,#25,.T.);
#200=EDGE_CURVE('',#160,#159,#30,.T.);
#204=EDGE_CURVE('',#167,#168,#35,.T.);
#206=EDGE_CURVE('',#168,#167,#40,.T.);
#210=EDGE_CURVE('',#175,#176,#45,.T.);
#212=EDGE_CURVE('',#176,#175,#50,.T.);
#223=EDGE_CURVE('',#143,#151,#54,.T.);
#225=EDGE_CURVE('',#151,#152,#63,.T.);
#227=EDGE_CURVE('',#144,#152,#58,.T.);
#239=EDGE_CURVE('',#152,#151,#68,.T.);
#254=EDGE_CURVE('',#155,#156,#73,.T.);
#256=EDGE_CURVE('',#156,#155,#78,.T.);
#260=EDGE_CURVE('',#163,#164,#83,.T.);
#262=EDGE_CURVE('',#164,#163,#88,.T.);
#266=EDGE_CURVE('',#171,#172,#93,.T.);
#268=EDGE_CURVE('',#172,#171,#98,.T.);
#272=EDGE_CURVE('',#179,#180,#103,.T.);
#274=EDGE_CURVE('',#180,#179,#108,.T.);
#285=EDGE_CURVE('',#147,#155,#112,.T.);
#288=EDGE_CURVE('',#148,#156,#116,.T.);
#311=EDGE_CURVE('',#164,#160,#124,.T.);
#314=EDGE_CURVE('',#163,#159,#120,.T.);
#337=EDGE_CURVE('',#172,#168,#132,.T.);
#340=EDGE_CURVE('',#171,#167,#128,.T.);
#363=EDGE_CURVE('',#180,#176,#140,.T.);
#366=EDGE_CURVE('',#179,#175,#136,.T.);
#385=(LENGTH_UNIT()NAMED_UNIT(*)SI_UNIT(.MILLI.,.METRE.));
#387=(NAMED_UNIT(*)PLANE_ANGLE_UNIT()SI_UNIT($,.RADIAN.));
#390=(NAMED_UNIT(*)SI_UNIT($,.STERADIAN.)SOLID_ANGLE_UNIT());
#393=ADVANCED_BREP_SHAPE_REPRESENTATION('',(#384),#392);
#400=PRODUCT_DEFINITION('design','',#399,#396);
#401=PRODUCT_DEFINITION_SHAPE('','SHAPE FOR 596340.',#400);
#402=SHAPE_DEFINITION_REPRESENTATION(#401,#393);
ENDSEC;
END-ISO-10303-21;
